  0
SECTION
  2
HEADER
  9
$ACADVER
  1
AC1015
  9
$ACADMAINTVER
 70
     6
  9
$DWGCODEPAGE
  3
ANSI_1252
  9
$INSBASE
 10
0.0
 20
0.0
 30
0.0
  9
$EXTMIN
 10
-550.0
 20
-69.0
 30
0.0
  9
$EXTMAX
 10
550.0
 20
19.0
 30
0.0
  9
$LIMMIN
 10
0.0
 20
0.0
  9
$LIMMAX
 10
420.0
 20
297.0
  9
$ORTHOMODE
 70
     0
  9
$REGENMODE
 70
     1
  9
$FILLMODE
 70
     1
  9
$QTEXTMODE
 70
     0
  9
$MIRRTEXT
 70
     1
  9
$LTSCALE
 40
1.0
  9
$ATTMODE
 70
     1
  9
$TEXTSIZE
 40
3.5
  9
$TRACEWID
 40
1.0
  9
$TEXTSTYLE
  7
Standard
  9
$CLAYER
  8
0
  9
$CELTYPE
  6
ByLayer
  9
$CECOLOR
 62
   256
  9
$CELTSCALE
 40
1.0
  9
$DISPSILH
 70
     0
  9
$DIMSCALE
 40
1.0
  9
$DIMASZ
 40
3.302
  9
$DIMEXO
 40
1.0
  9
$DIMDLI
 40
3.75
  9
$DIMRND
 40
0.0
  9
$DIMDLE
 40
0.0
  9
$DIMEXE
 40
1.0
  9
$DIMTP
 40
0.0
  9
$DIMTM
 40
0.0
  9
$DIMTXT
 40
3.5
  9
$DIMCEN
 40
2.5
  9
$DIMTSZ
 40
0.0
  9
$DIMTOL
 70
     0
  9
$DIMLIM
 70
     0
  9
$DIMTIH
 70
     1
  9
$DIMTOH
 70
     1
  9
$DIMSE1
 70
     0
  9
$DIMSE2
 70
     0
  9
$DIMTAD
 70
     1
  9
$DIMZIN
 70
     1
  9
$DIMBLK
  1

  9
$DIMASO
 70
     1
  9
$DIMSHO
 70
     1
  9
$DIMPOST
  1

  9
$DIMAPOST
  1

  9
$DIMALT
 70
     0
  9
$DIMALTD
 70
     3
  9
$DIMALTF
 40
0.0393700787
  9
$DIMLFAC
 40
1.0
  9
$DIMTOFL
 70
     1
  9
$DIMTVP
 40
0.0
  9
$DIMTIX
 70
     0
  9
$DIMSOXD
 70
     0
  9
$DIMSAH
 70
     0
  9
$DIMBLK1
  1

  9
$DIMBLK2
  1

  9
$DIMSTYLE
  2
ISO-25
  9
$DIMCLRD
 70
     0
  9
$DIMCLRE
 70
     0
  9
$DIMCLRT
 70
     0
  9
$DIMTFAC
 40
1.0
  9
$DIMGAP
 40
1.524
  9
$DIMJUST
 70
     0
  9
$DIMSD1
 70
     0
  9
$DIMSD2
 70
     0
  9
$DIMTOLJ
 70
     0
  9
$DIMTZIN
 70
     1
  9
$DIMALTZ
 70
     0
  9
$DIMALTTZ
 70
     0
  9
$DIMUPT
 70
     0
  9
$DIMDEC
 70
     2
  9
$DIMTDEC
 70
     2
  9
$DIMALTU
 70
     2
  9
$DIMALTTD
 70
     3
  9
$DIMTXSTY
  7
Standard
  9
$DIMAUNIT
 70
     0
  9
$DIMADEC
 70
     2
  9
$DIMALTRND
 40
0.0
  9
$DIMAZIN
 70
     0
  9
$DIMDSEP
 70
    44
  9
$DIMATFIT
 70
     3
  9
$DIMFRAC
 70
     0
  9
$DIMLDRBLK
  1

  9
$DIMLUNIT
 70
     2
  9
$DIMLWD
 70
    -2
  9
$DIMLWE
 70
    -2
  9
$DIMTMOVE
 70
     0
  9
$LUNITS
 70
     2
  9
$LUPREC
 70
     2
  9
$SKETCHINC
 40
1.0
  9
$FILLETRAD
 40
10.0
  9
$AUNITS
 70
     0
  9
$AUPREC
 70
     2
  9
$MENU
  1
.
  9
$ELEVATION
 40
0.0
  9
$PELEVATION
 40
0.0
  9
$THICKNESS
 40
0.0
  9
$LIMCHECK
 70
     0
  9
$CHAMFERA
 40
0.0
  9
$CHAMFERB
 40
0.0
  9
$CHAMFERC
 40
0.0
  9
$CHAMFERD
 40
0.0
  9
$SKPOLY
 70
     0
  9
$TDCREATE
 40
2458934.45796279
  9
$TDUCREATE
 40
2458934.45796279
  9
$TDUPDATE
 40
2458934.457992431
  9
$TDUUPDATE
 40
2458934.457992431
  9
$TDINDWG
 40
0.0000000116
  9
$TDUSRTIMER
 40
0.0000000116
  9
$USRTIMER
 70
     1
  9
$ANGBASE
 50
0.0
  9
$ANGDIR
 70
     0
  9
$PDMODE
 70
     0
  9
$PDSIZE
 40
-1.0
  9
$PLINEWID
 40
0.0
  9
$SPLFRAME
 70
     0
  9
$SPLINETYPE
 70
     6
  9
$SPLINESEGS
 70
     8
  9
$HANDSEED
  5
398
  9
$SURFTAB1
 70
     6
  9
$SURFTAB2
 70
     6
  9
$SURFTYPE
 70
     6
  9
$SURFU
 70
     6
  9
$SURFV
 70
     6
  9
$UCSBASE
  2

  9
$UCSNAME
  2

  9
$UCSORG
 10
0.0
 20
0.0
 30
0.0
  9
$UCSXDIR
 10
1.0
 20
0.0
 30
0.0
  9
$UCSYDIR
 10
0.0
 20
1.0
 30
0.0
  9
$UCSORTHOREF
  2

  9
$UCSORTHOVIEW
 70
     0
  9
$UCSORGTOP
 10
0.0
 20
0.0
 30
0.0
  9
$UCSORGBOTTOM
 10
0.0
 20
0.0
 30
0.0
  9
$UCSORGLEFT
 10
0.0
 20
0.0
 30
0.0
  9
$UCSORGRIGHT
 10
0.0
 20
0.0
 30
0.0
  9
$UCSORGFRONT
 10
0.0
 20
0.0
 30
0.0
  9
$UCSORGBACK
 10
0.0
 20
0.0
 30
0.0
  9
$PUCSBASE
  2

  9
$PUCSNAME
  2

  9
$PUCSORG
 10
0.0
 20
0.0
 30
0.0
  9
$PUCSXDIR
 10
1.0
 20
0.0
 30
0.0
  9
$PUCSYDIR
 10
0.0
 20
1.0
 30
0.0
  9
$PUCSORTHOREF
  2

  9
$PUCSORTHOVIEW
 70
     0
  9
$PUCSORGTOP
 10
0.0
 20
0.0
 30
0.0
  9
$PUCSORGBOTTOM
 10
0.0
 20
0.0
 30
0.0
  9
$PUCSORGLEFT
 10
0.0
 20
0.0
 30
0.0
  9
$PUCSORGRIGHT
 10
0.0
 20
0.0
 30
0.0
  9
$PUCSORGFRONT
 10
0.0
 20
0.0
 30
0.0
  9
$PUCSORGBACK
 10
0.0
 20
0.0
 30
0.0
  9
$USERI1
 70
     0
  9
$USERI2
 70
     0
  9
$USERI3
 70
     0
  9
$USERI4
 70
     0
  9
$USERI5
 70
     0
  9
$USERR1
 40
0.0
  9
$USERR2
 40
0.0
  9
$USERR3
 40
0.0
  9
$USERR4
 40
0.0
  9
$USERR5
 40
0.0
  9
$WORLDVIEW
 70
     1
  9
$SHADEDGE
 70
     3
  9
$SHADEDIF
 70
    70
  9
$TILEMODE
 70
     1
  9
$MAXACTVP
 70
    64
  9
$PINSBASE
 10
0.0
 20
0.0
 30
0.0
  9
$PLIMCHECK
 70
     0
  9
$PEXTMIN
 10
-550.0
 20
-69.0
 30
0.0
  9
$PEXTMAX
 10
550.0
 20
19.0
 30
0.0
  9
$PLIMMIN
 10
-635.6031128405
 20
-101.1011673152
  9
$PLIMMAX
 10
635.6031128405
 20
797.7315175097
  9
$UNITMODE
 70
     0
  9
$VISRETAIN
 70
     1
  9
$PLINEGEN
 70
     0
  9
$PSLTSCALE
 70
     1
  9
$TREEDEPTH
 70
  3020
  9
$CMLSTYLE
  2
Standard
  9
$CMLJUST
 70
     0
  9
$CMLSCALE
 40
20.0
  9
$PROXYGRAPHICS
 70
     1
  9
$MEASUREMENT
 70
     1
  9
$CELWEIGHT
370
    -1
  9
$ENDCAPS
280
     0
  9
$JOINSTYLE
280
     0
  9
$LWDISPLAY
290
     1
  9
$INSUNITS
 70
     4
  9
$HYPERLINKBASE
  1

  9
$STYLESHEET
  1

  9
$XEDIT
290
     1
  9
$CEPSNTYPE
380
     0
  9
$PSTYLEMODE
290
     1
  9
$FINGERPRINTGUID
  2
{11fb4490-7c63-498b-bbda-69cadb5857c4}
  9
$VERSIONGUID
  2
{FAEB1C32-E019-11D5-929B-00C0DF256EC4}
  9
$EXTNAMES
290
     1
  9
$PSVPSCALE
 40
0.0
  9
$OLESTARTUP
290
     0
  0
ENDSEC
  0
SECTION
  2
CLASSES
  0
CLASS
  1
ACDBDICTIONARYWDFLT
  2
AcDbDictionaryWithDefault
  3
ObjectDBX Classes
 90
        0
280
     0
281
     0
  0
CLASS
  1
VISUALSTYLE
  2
AcDbVisualStyle
  3
ObjectDBX Classes
 90
     4095
280
     0
281
     0
  0
CLASS
  1
MATERIAL
  2
AcDbMaterial
  3
ObjectDBX Classes
 90
     1153
280
     0
281
     0
  0
CLASS
  1
SCALE
  2
AcDbScale
  3
ObjectDBX Classes
 90
     1153
280
     0
281
     0
  0
CLASS
  1
TABLESTYLE
  2
AcDbTableStyle
  3
ObjectDBX Classes
 90
     4095
280
     0
281
     0
  0
CLASS
  1
MLEADERSTYLE
  2
AcDbMLeaderStyle
  3
ACDB_MLEADERSTYLE_CLASS
 90
     4095
280
     0
281
     0
  0
CLASS
  1
SUN
  2
AcDbSun
  3
SCENEOE
 90
     1153
280
     0
281
     0
  0
CLASS
  1
ACDBPLACEHOLDER
  2
AcDbPlaceHolder
  3
ObjectDBX Classes
 90
        0
280
     0
281
     0
  0
CLASS
  1
LAYOUT
  2
AcDbLayout
  3
ObjectDBX Classes
 90
        0
280
     0
281
     0
  0
ENDSEC
  0
SECTION
  2
TABLES
  0
TABLE
  2
VPORT
  5
8
330
0
100
AcDbSymbolTable
 70
     1
  0
VPORT
  5
29
330
8
100
AcDbSymbolTableRecord
100
AcDbViewportTableRecord
  2
*Active
 70
     0
 10
0.0
 20
0.0
 11
1.0
 21
1.0
 12
0.0
 22
-25.0
 13
0.0
 23
0.0
 14
10.0
 24
10.0
 15
10.0
 25
10.0
 16
0.0
 26
0.0
 36
1.0
 17
0.0
 27
0.0
 37
0.0
 40
89.76
 41
12.5
 42
50.0
 43
0.0
 44
0.0
 50
0.0
 51
0.0
 71
     0
 72
   100
 73
     1
 74
     3
 75
     0
 76
     0
 77
     0
 78
     0
281
     0
 65
     1
110
0.0
120
0.0
130
0.0
111
1.0
121
0.0
131
0.0
112
0.0
122
1.0
132
0.0
 79
     0
146
0.0
  0
ENDTAB
  0
TABLE
  2
LTYPE
  5
5
330
0
100
AcDbSymbolTable
 70
     6
  0
LTYPE
  5
14
330
5
100
AcDbSymbolTableRecord
100
AcDbLinetypeTableRecord
  2
ByBlock
 70
     0
  3

 72
    65
 73
     0
 40
0.0
  0
LTYPE
  5
15
330
5
100
AcDbSymbolTableRecord
100
AcDbLinetypeTableRecord
  2
ByLayer
 70
     0
  3

 72
    65
 73
     0
 40
0.0
  0
LTYPE
  5
16
330
5
100
AcDbSymbolTableRecord
100
AcDbLinetypeTableRecord
  2
Continuous
 70
     0
  3
Solid line
 72
    65
 73
     0
 40
0.0
  0
LTYPE
  5
6E
330
5
100
AcDbSymbolTableRecord
100
AcDbLinetypeTableRecord
  2
HIDDEN
 70
     0
  3
Hidden __ __ __ __ __ __ __ __ __ __ __ __ __ __
 72
    65
 73
     2
 40
1.905
 49
1.27
 74
     0
 49
-0.635
 74
     0
  0
LTYPE
  5
6F
330
5
100
AcDbSymbolTableRecord
100
AcDbLinetypeTableRecord
  2
PHANTOM
 70
     0
  3
Phantom ______  __  __  ______  __  __  ______
 72
    65
 73
     6
 40
12.7
 49
6.35
 74
     0
 49
-1.27
 74
     0
 49
1.27
 74
     0
 49
-1.27
 74
     0
 49
1.27
 74
     0
 49
-1.27
 74
     0
  0
LTYPE
  5
70
330
5
100
AcDbSymbolTableRecord
100
AcDbLinetypeTableRecord
  2
CENTER
 70
     0
  3
Center ____ _ ____ _ ____ _ ____ _ ____ _ ____
 72
    65
 73
     4
 40
10.16
 49
6.35
 74
     0
 49
-1.27
 74
     0
 49
1.27
 74
     0
 49
-1.27
 74
     0
  0
LTYPE
  5
71
330
5
100
AcDbSymbolTableRecord
100
AcDbLinetypeTableRecord
  2
CENTERX2
 70
     0
  3
Center (2x) ________  __  ________  __  _____
 72
    65
 73
     4
 40
20.32
 49
12.7
 74
     0
 49
-2.54
 74
     0
 49
2.54
 74
     0
 49
-2.54
 74
     0
  0
LTYPE
  5
72
330
5
100
AcDbSymbolTableRecord
100
AcDbLinetypeTableRecord
  2
DOT2
 70
     0
  3
Dot (.5x) ........................................
 72
    65
 73
     2
 40
0.635
 49
0.0
 74
     0
 49
-0.635
 74
     0
  0
ENDTAB
  0
TABLE
  2
LAYER
  5
2
330
0
100
AcDbSymbolTable
 70
     1
  0
LAYER
  5
10
330
2
100
AcDbSymbolTableRecord
100
AcDbLayerTableRecord
  2
0
 70
     0
 62
     7
  6
Continuous
370
    -3
390
F
  0
ENDTAB
  0
TABLE
  2
STYLE
  5
3
330
0
100
AcDbSymbolTable
 70
     1
  0
STYLE
  5
11
330
3
100
AcDbSymbolTableRecord
100
AcDbTextStyleTableRecord
  2
Standard
 70
     0
 40
0.0
 41
1.0
 50
0.0
 71
     0
 42
3.5
  3
txt
  4

  0
ENDTAB
  0
TABLE
  2
VIEW
  5
6
330
0
100
AcDbSymbolTable
 70
     0
  0
ENDTAB
  0
TABLE
  2
UCS
  5
7
330
0
100
AcDbSymbolTable
 70
     0
  0
ENDTAB
  0
TABLE
  2
APPID
  5
9
330
0
100
AcDbSymbolTable
 70
     1
  0
APPID
  5
12
330
9
100
AcDbSymbolTableRecord
100
AcDbRegAppTableRecord
  2
ACAD
 70
     0
  0
ENDTAB
  0
TABLE
  2
DIMSTYLE
  5
A
330
0
100
AcDbSymbolTable
 70
     1
100
AcDbDimStyleTable
  0
DIMSTYLE
105
27
330
A
100
AcDbSymbolTableRecord
100
AcDbDimStyleTableRecord
  2
ISO-25
 70
     0
 41
2.5
 42
0.625
 43
3.75
 44
1.25
 73
     0
 74
     0
 77
     1
 78
     8
140
2.5
141
2.5
143
0.0393700787
147
0.625
171
     3
172
     1
178
     0
271
     2
272
     2
274
     3
278
    44
283
     0
284
     8
340
11
  0
ENDTAB
  0
TABLE
  2
BLOCK_RECORD
  5
1
330
0
100
AcDbSymbolTable
 70
     3
  0
BLOCK_RECORD
  5
1F
330
1
100
AcDbSymbolTableRecord
100
AcDbBlockTableRecord
  2
*Model_Space
340
22
  0
BLOCK_RECORD
  5
1B
330
1
100
AcDbSymbolTableRecord
100
AcDbBlockTableRecord
  2
*Paper_Space
340
1E
  0
BLOCK_RECORD
  5
23
330
1
100
AcDbSymbolTableRecord
100
AcDbBlockTableRecord
  2
*Paper_Space0
340
26
  0
BLOCK_RECORD
  5
263
330
1
100
AcDbSymbolTableRecord
100
AcDbBlockTableRecord
  2
*Paper_Space1
340
264
  0
BLOCK_RECORD
  5
298
330
1
100
AcDbSymbolTableRecord
100
AcDbBlockTableRecord
  2
*Paper_Space2
340
299
  0
ENDTAB
  0
ENDSEC
  0
SECTION
  2
BLOCKS
  0
BLOCK
  5
20
330
1F
100
AcDbEntity
  8
0
100
AcDbBlockBegin
  2
*Model_Space
 70
     0
 10
0.0
 20
0.0
 30
0.0
  3
*Model_Space
  1

  0
ENDBLK
  5
21
330
1F
100
AcDbEntity
  8
0
100
AcDbBlockEnd
  0
BLOCK
  5
1C
330
1B
100
AcDbEntity
 67
     1
  8
0
100
AcDbBlockBegin
  2
*Paper_Space
 70
     0
 10
0.0
 20
0.0
 30
0.0
  3
*Paper_Space
  1

  0
ENDBLK
  5
1D
330
1B
100
AcDbEntity
 67
     1
  8
0
100
AcDbBlockEnd
  0
BLOCK
  5
24
330
23
100
AcDbEntity
  8
0
100
AcDbBlockBegin
  2
*Paper_Space0
 70
     0
 10
0.0
 20
0.0
 30
0.0
  3
*Paper_Space0
  1

  0
LINE
  5
207
330
23
100
AcDbEntity
  8
0
  6
Continuous
 62
     7
370
    25
100
AcDbLine
 10
0.0
 20
18.8
 30
0.0
 11
-39.8
 21
18.8
 31
0.0
  0
LINE
  5
208
330
23
100
AcDbEntity
  8
0
  6
Continuous
 62
     7
370
    25
100
AcDbLine
 10
-39.8
 20
18.8
 30
0.0
 11
-40.0
 21
19.0
 31
0.0
  0
LINE
  5
209
330
23
100
AcDbEntity
  8
0
  6
Continuous
 62
     7
370
    25
100
AcDbLine
 10
-40.0
 20
19.0
 30
0.0
 11
-0.2
 21
19.0
 31
0.0
  0
LINE
  5
20A
330
23
100
AcDbEntity
  8
0
  6
Continuous
 62
     7
370
    25
100
AcDbLine
 10
-39.8
 20
18.8
 30
0.0
 11
-39.8
 21
0.0
 31
0.0
  0
LINE
  5
20B
330
23
100
AcDbEntity
  8
0
  6
Continuous
 62
     7
370
    25
100
AcDbLine
 10
-40.0
 20
0.2
 30
0.0
 11
-40.0
 21
19.0
 31
0.0
  0
LINE
  5
20C
330
23
100
AcDbEntity
  8
0
  6
Continuous
 62
     7
370
    25
100
AcDbLine
 10
-38.3
 20
17.7
 30
0.0
 11
-4.5
 21
17.7
 31
0.0
  0
LINE
  5
20D
330
23
100
AcDbEntity
  8
0
  6
Continuous
 62
     7
370
    25
100
AcDbLine
 10
-4.5
 20
17.7
 30
0.0
 11
-4.5
 21
17.5
 31
0.0
  0
LINE
  5
20E
330
23
100
AcDbEntity
  8
0
  6
Continuous
 62
     7
370
    25
100
AcDbLine
 10
-4.5
 20
17.5
 30
0.0
 11
-38.3
 21
17.5
 31
0.0
  0
LINE
  5
20F
330
23
100
AcDbEntity
  8
0
  6
Continuous
 62
     7
370
    25
100
AcDbLine
 10
-38.3
 20
17.7
 30
0.0
 11
-38.3
 21
17.5
 31
0.0
  0
LINE
  5
210
330
23
100
AcDbEntity
  8
0
  6
Continuous
 62
     7
370
    25
100
AcDbLine
 10
-2.7715092053
 20
16.9520031755
 30
0.0
 11
-2.6562764856
 21
17.1154700538
 31
0.0
  0
LINE
  5
211
330
23
100
AcDbEntity
  8
0
  6
Continuous
 62
     7
370
    25
100
AcDbLine
 10
-2.6562764856
 20
16.9422649731
 30
0.0
 11
-2.6562764856
 21
17.1154700538
 31
0.0
  0
LINE
  5
212
330
23
100
AcDbEntity
  8
0
  6
Continuous
 62
     7
370
    25
100
AcDbLine
 10
-0.2
 20
16.9422649731
 30
0.0
 11
-2.6562764856
 21
16.9422649731
 31
0.0
  0
LINE
  5
213
330
23
100
AcDbEntity
  8
0
  6
Continuous
 62
     7
370
    25
100
AcDbLine
 10
-2.6562764856
 20
17.1154700538
 30
0.0
 11
-0.0267949192
 21
17.1154700538
 31
0.0
  0
LINE
  5
214
330
23
100
AcDbEntity
  8
0
  6
Continuous
 62
     7
370
    25
100
AcDbLine
 10
-0.2
 20
9.0
 30
0.0
 11
-0.2
 21
16.9422649731
 31
0.0
  0
LINE
  5
215
330
23
100
AcDbEntity
  8
0
  6
Continuous
 62
     7
370
    25
100
AcDbLine
 10
0.0
 20
18.8
 30
0.0
 11
0.0
 21
9.2
 31
0.0
  0
LINE
  5
216
330
23
100
AcDbEntity
  8
0
  6
Continuous
 62
     7
370
    25
100
AcDbLine
 10
-38.7
 20
0.0
 30
0.0
 11
-38.7
 21
17.3
 31
0.0
  0
LINE
  5
217
330
23
100
AcDbEntity
  8
0
  6
Continuous
 62
     7
370
    25
100
AcDbLine
 10
-38.7
 20
17.3
 30
0.0
 11
-38.5
 21
17.3
 31
0.0
  0
LINE
  5
218
330
23
100
AcDbEntity
  8
0
  6
Continuous
 62
     7
370
    25
100
AcDbLine
 10
-38.5
 20
17.3
 30
0.0
 11
-38.5
 21
0.2
 31
0.0
  0
LINE
  5
219
330
23
100
AcDbEntity
  8
0
  6
Continuous
 62
     7
370
    25
100
AcDbLine
 10
-40.0
 20
17.1154700538
 30
0.0
 11
-38.5
 21
17.1154700538
 31
0.0
  0
LINE
  5
21A
330
23
100
AcDbEntity
  8
0
  6
Continuous
 62
     7
370
    25
100
AcDbLine
 10
-38.7
 20
16.9422649731
 30
0.0
 11
-39.8
 21
16.9422649731
 31
0.0
  0
LINE
  5
21B
330
23
100
AcDbEntity
  8
0
  6
Continuous
 62
     7
370
    25
100
AcDbLine
 10
-1.3
 20
9.0267949192
 30
0.0
 11
-0.2
 21
9.0267949192
 31
0.0
  0
LINE
  5
21C
330
23
100
AcDbEntity
  8
0
  6
Continuous
 62
     7
370
    25
100
AcDbLine
 10
-1.3
 20
14.3267949192
 30
0.0
 11
-1.3
 21
9.0
 31
0.0
  0
LINE
  5
21D
330
23
100
AcDbEntity
  8
0
  6
Continuous
 62
     7
370
    25
100
AcDbLine
 10
-39.8
 20
0.0267949192
 30
0.0
 11
-38.7
 21
0.0267949192
 31
0.0
  0
LINE
  5
21E
330
23
100
AcDbEntity
  8
0
  6
Continuous
 62
     7
370
    25
100
AcDbLine
 10
-1.5
 20
9.2
 30
0.0
 11
-1.5
 21
14.5
 31
0.0
  0
LINE
  5
21F
330
23
100
AcDbEntity
  8
0
  6
Continuous
 62
     7
370
    25
100
AcDbLine
 10
-0.2
 20
9.0
 30
0.0
 11
-1.3
 21
9.0
 31
0.0
  0
LINE
  5
220
330
23
100
AcDbEntity
  8
0
  6
Continuous
 62
     7
370
    25
100
AcDbLine
 10
-38.7
 20
0.0
 30
0.0
 11
-39.8
 21
0.0
 31
0.0
  0
LINE
  5
221
330
23
100
AcDbEntity
  8
0
  6
Continuous
 62
     7
370
    25
100
AcDbLine
 10
-38.3
 20
-51.3
 30
0.0
 11
-4.5
 21
-51.3
 31
0.0
  0
LINE
  5
222
330
23
100
AcDbEntity
  8
0
  6
Continuous
 62
     7
370
    25
100
AcDbLine
 10
-38.7
 20
-69.0
 30
0.0
 11
-38.7
 21
-51.7
 31
0.0
  0
LINE
  5
223
330
23
100
AcDbEntity
  8
0
  6
Continuous
 62
     7
370
    25
100
AcDbLine
 10
-40.0
 20
-51.8845299462
 30
0.0
 11
-38.5
 21
-51.8845299462
 31
0.0
  0
LINE
  5
224
330
23
100
AcDbEntity
  8
0
  6
Continuous
 62
     7
370
    25
100
AcDbLine
 10
-39.8
 20
-50.2
 30
0.0
 11
-39.8
 21
-69.0
 31
0.0
  0
LINE
  5
225
330
23
100
AcDbEntity
  8
0
  6
Continuous
 62
     7
370
    25
100
AcDbLine
 10
0.0
 20
-50.2
 30
0.0
 11
-39.8
 21
-50.2
 31
0.0
  0
LINE
  5
226
330
23
100
AcDbEntity
  8
0
  6
Continuous
 62
     7
370
    25
100
AcDbLine
 10
0.0
 20
-50.2
 30
0.0
 11
0.0
 21
-59.8
 31
0.0
  0
LINE
  5
227
330
23
100
AcDbEntity
  8
0
  6
Continuous
 62
     7
370
    25
100
AcDbLine
 10
-2.6562764856
 20
-51.8845299462
 30
0.0
 11
-0.0267949192
 21
-51.8845299462
 31
0.0
  0
LINE
  5
228
330
23
100
AcDbEntity
  8
0
  6
Continuous
 62
     7
370
    25
100
AcDbLine
 10
-0.2
 20
-60.0
 30
0.0
 11
-0.2
 21
-52.0577350269
 31
0.0
  0
LINE
  5
229
330
23
100
AcDbEntity
  8
0
  6
Continuous
 62
     7
370
    25
100
AcDbLine
 10
-40.0
 20
-68.8
 30
0.0
 11
-40.0
 21
-50.0
 31
0.0
  0
LINE
  5
22A
330
23
100
AcDbEntity
  8
0
  6
Continuous
 62
     7
370
    25
100
AcDbLine
 10
-39.8
 20
-50.2
 30
0.0
 11
-40.0
 21
-50.0
 31
0.0
  0
LINE
  5
22B
330
23
100
AcDbEntity
  8
0
  6
Continuous
 62
     7
370
    25
100
AcDbLine
 10
-0.2
 20
-52.0577350269
 30
0.0
 11
-2.6562764856
 21
-52.0577350269
 31
0.0
  0
LINE
  5
22C
330
23
100
AcDbEntity
  8
0
  6
Continuous
 62
     7
370
    25
100
AcDbLine
 10
-2.6562764856
 20
-52.0577350269
 30
0.0
 11
-2.6562764856
 21
-51.8845299462
 31
0.0
  0
LINE
  5
22D
330
23
100
AcDbEntity
  8
0
  6
Continuous
 62
     7
370
    25
100
AcDbLine
 10
-2.7715092053
 20
-52.0479968245
 30
0.0
 11
-2.6562764856
 21
-51.8845299462
 31
0.0
  0
LINE
  5
22E
330
23
100
AcDbEntity
  8
0
  6
Continuous
 62
     7
370
    25
100
AcDbLine
 10
-38.7
 20
-52.0577350269
 30
0.0
 11
-39.8
 21
-52.0577350269
 31
0.0
  0
LINE
  5
22F
330
23
100
AcDbEntity
  8
0
  6
Continuous
 62
     7
370
    25
100
AcDbLine
 10
-38.7
 20
-51.7
 30
0.0
 11
-38.5
 21
-51.7
 31
0.0
  0
LINE
  5
230
330
23
100
AcDbEntity
  8
0
  6
Continuous
 62
     7
370
    25
100
AcDbLine
 10
-38.5
 20
-51.7
 30
0.0
 11
-38.5
 21
-68.8
 31
0.0
  0
LINE
  5
231
330
23
100
AcDbEntity
  8
0
  6
Continuous
 62
     7
370
    25
100
AcDbLine
 10
-38.3
 20
-51.3
 30
0.0
 11
-38.3
 21
-51.5
 31
0.0
  0
LINE
  5
232
330
23
100
AcDbEntity
  8
0
  6
Continuous
 62
     7
370
    25
100
AcDbLine
 10
-40.0
 20
-50.0
 30
0.0
 11
-0.2
 21
-50.0
 31
0.0
  0
LINE
  5
233
330
23
100
AcDbEntity
  8
0
  6
Continuous
 62
     7
370
    25
100
AcDbLine
 10
-4.5
 20
-51.3
 30
0.0
 11
-4.5
 21
-51.5
 31
0.0
  0
LINE
  5
234
330
23
100
AcDbEntity
  8
0
  6
Continuous
 62
     7
370
    25
100
AcDbLine
 10
-4.5
 20
-51.5
 30
0.0
 11
-38.3
 21
-51.5
 31
0.0
  0
LINE
  5
235
330
23
100
AcDbEntity
  8
0
  6
Continuous
 62
     7
370
    25
100
AcDbLine
 10
-39.8
 20
-68.9732050808
 30
0.0
 11
-38.7
 21
-68.9732050808
 31
0.0
  0
LINE
  5
236
330
23
100
AcDbEntity
  8
0
  6
Continuous
 62
     7
370
    25
100
AcDbLine
 10
-1.3
 20
-59.9732050808
 30
0.0
 11
-0.2
 21
-59.9732050808
 31
0.0
  0
LINE
  5
237
330
23
100
AcDbEntity
  8
0
  6
Continuous
 62
     7
370
    25
100
AcDbLine
 10
-1.3
 20
-54.6732050808
 30
0.0
 11
-1.3
 21
-60.0
 31
0.0
  0
LINE
  5
238
330
23
100
AcDbEntity
  8
0
  6
Continuous
 62
     7
370
    25
100
AcDbLine
 10
-1.5
 20
-59.8
 30
0.0
 11
-1.5
 21
-54.5
 31
0.0
  0
LINE
  5
239
330
23
100
AcDbEntity
  8
0
  6
Continuous
 62
     7
370
    25
100
AcDbLine
 10
-0.2
 20
-60.0
 30
0.0
 11
-1.3
 21
-60.0
 31
0.0
  0
LINE
  5
23A
330
23
100
AcDbEntity
  8
0
  6
Continuous
 62
     7
370
    25
100
AcDbLine
 10
-38.7
 20
-69.0
 30
0.0
 11
-39.8
 21
-69.0
 31
0.0
  0
ARC
  5
23B
330
23
100
AcDbEntity
  8
0
  6
Continuous
 62
     7
370
    25
100
AcDbCircle
 10
-0.2
 20
18.8
 30
0.0
 40
0.1999999999999957
100
AcDbArc
 50
0.0
 51
90.0
  0
ARC
  5
23C
330
23
100
AcDbEntity
  8
0
  6
Continuous
 62
     7
370
    25
100
AcDbCircle
 10
-2.7045594159
 20
17.0575770928
 30
0.0
 40
0.1250125046389701
100
AcDbArc
 50
237.6191380902
 51
292.7197987617
  0
ARC
  5
23D
330
23
100
AcDbEntity
  8
0
  6
Continuous
 62
     7
370
    25
100
AcDbCircle
 10
-0.3825820484
 20
17.2980521023
 30
0.0
 40
0.3999008448414206
100
AcDbArc
 50
297.1658868188
 51
332.8341131812
  0
ARC
  5
23E
330
23
100
AcDbEntity
  8
0
  6
Continuous
 62
     7
370
    25
100
AcDbCircle
 10
-4.5
 20
14.5
 30
0.0
 40
3.200000000000026
100
AcDbArc
 50
54.8188395203
 51
90.0
  0
ARC
  5
23F
330
23
100
AcDbEntity
  8
0
  6
Continuous
 62
     7
370
    25
100
AcDbCircle
 10
-4.5
 20
14.5
 30
0.0
 40
2.999999999999999
100
AcDbArc
 50
0.0
 51
90.0
  0
ARC
  5
240
330
23
100
AcDbEntity
  8
0
  6
Continuous
 62
     7
370
    25
100
AcDbCircle
 10
-0.1875
 20
9.2144337567
 30
0.0
 40
0.18805473493994
100
AcDbArc
 50
266.1887389505
 51
355.5980503477
  0
ARC
  5
241
330
23
100
AcDbEntity
  8
0
  6
Continuous
 62
     7
370
    25
100
AcDbCircle
 10
-0.2588781936
 20
17.2301690833
 30
0.0
 40
0.2588793417975211
100
AcDbArc
 50
333.7007279813
 51
0.1706451596
  0
ARC
  5
242
330
23
100
AcDbEntity
  8
0
  6
Continuous
 62
     7
370
    25
100
AcDbCircle
 10
-38.3
 20
17.3
 30
0.0
 40
0.3999999999999986
100
AcDbArc
 50
90.0
 51
180.0
  0
ARC
  5
243
330
23
100
AcDbEntity
  8
0
  6
Continuous
 62
     7
370
    25
100
AcDbCircle
 10
-38.3
 20
17.3
 30
0.0
 40
0.2000000000000028
100
AcDbArc
 50
90.0
 51
180.0
  0
ARC
  5
244
330
23
100
AcDbEntity
  8
0
  6
Continuous
 62
     7
370
    25
100
AcDbCircle
 10
-38.6875
 20
17.1299038106
 30
0.0
 40
0.1880547349399506
100
AcDbArc
 50
266.1887389505
 51
355.5980503477
  0
ARC
  5
245
330
23
100
AcDbEntity
  8
0
  6
Continuous
 62
     7
370
    25
100
AcDbCircle
 10
-39.8125
 20
17.1299038106
 30
0.0
 40
0.1880547349399454
100
AcDbArc
 50
184.4019496523
 51
273.8112610495
  0
ARC
  5
246
330
23
100
AcDbEntity
  8
0
  6
Continuous
 62
     7
370
    25
100
AcDbCircle
 10
-4.5
 20
14.3267949192
 30
0.0
 40
3.199999999999997
100
AcDbArc
 50
0.0
 51
54.8188395203
  0
ARC
  5
247
330
23
100
AcDbEntity
  8
0
  6
Continuous
 62
     7
370
    25
100
AcDbCircle
 10
-39.8125
 20
0.2144337567
 30
0.0
 40
0.1880547349399537
100
AcDbArc
 50
184.4019496523
 51
273.8112610495
  0
ARC
  5
248
330
23
100
AcDbEntity
  8
0
  6
Continuous
 62
     7
370
    25
100
AcDbCircle
 10
-1.3125
 20
14.5144337567
 30
0.0
 40
0.1880547349399719
100
AcDbArc
 50
184.4019496523
 51
273.8112610495
  0
ARC
  5
249
330
23
100
AcDbEntity
  8
0
  6
Continuous
 62
     7
370
    25
100
AcDbCircle
 10
-38.6875
 20
0.2144337567
 30
0.0
 40
0.1880547349399382
100
AcDbArc
 50
266.1887389505
 51
355.5980503477
  0
ARC
  5
24A
330
23
100
AcDbEntity
  8
0
  6
Continuous
 62
     7
370
    25
100
AcDbCircle
 10
-1.3125
 20
9.2144337567
 30
0.0
 40
0.1880547349399368
100
AcDbArc
 50
184.4019496523
 51
273.8112610495
  0
ARC
  5
24B
330
23
100
AcDbEntity
  8
0
  6
Continuous
 62
     7
370
    25
100
AcDbCircle
 10
-0.2
 20
9.2
 30
0.0
 40
0.2000000000000028
100
AcDbArc
 50
270.0
 51
0.0
  0
ARC
  5
24C
330
23
100
AcDbEntity
  8
0
  6
Continuous
 62
     7
370
    25
100
AcDbCircle
 10
-1.3
 20
9.2
 30
0.0
 40
0.2000000000000099
100
AcDbArc
 50
180.0
 51
270.0
  0
ARC
  5
24D
330
23
100
AcDbEntity
  8
0
  6
Continuous
 62
     7
370
    25
100
AcDbCircle
 10
-38.7
 20
0.2
 30
0.0
 40
0.2000000000000171
100
AcDbArc
 50
270.0
 51
360.0
  0
ARC
  5
24E
330
23
100
AcDbEntity
  8
0
  6
Continuous
 62
     7
370
    25
100
AcDbCircle
 10
-39.8
 20
0.2
 30
0.0
 40
0.2000000000000028
100
AcDbArc
 50
180.0
 51
270.0
  0
ARC
  5
24F
330
23
100
AcDbEntity
  8
0
  6
Continuous
 62
     7
370
    25
100
AcDbCircle
 10
-4.5
 20
-54.5
 30
0.0
 40
3.200000000000024
100
AcDbArc
 50
54.8188395203
 51
90.0
  0
ARC
  5
250
330
23
100
AcDbEntity
  8
0
  6
Continuous
 62
     7
370
    25
100
AcDbCircle
 10
-38.3
 20
-51.7
 30
0.0
 40
0.4000000000000057
100
AcDbArc
 50
90.0
 51
180.0
  0
ARC
  5
251
330
23
100
AcDbEntity
  8
0
  6
Continuous
 62
     7
370
    25
100
AcDbCircle
 10
-0.2588781936
 20
-51.7698309167
 30
0.0
 40
0.2588793417974838
100
AcDbArc
 50
333.7007279813
 51
0.1706451596
  0
ARC
  5
252
330
23
100
AcDbEntity
  8
0
  6
Continuous
 62
     7
370
    25
100
AcDbCircle
 10
-0.1875
 20
-59.7855662433
 30
0.0
 40
0.1880547349399216
100
AcDbArc
 50
266.1887389505
 51
355.5980503477
  0
ARC
  5
253
330
23
100
AcDbEntity
  8
0
  6
Continuous
 62
     7
370
    25
100
AcDbCircle
 10
-0.3825820484
 20
-51.7019478977
 30
0.0
 40
0.3999008448414339
100
AcDbArc
 50
297.1658868188
 51
332.8341131812
  0
ARC
  5
254
330
23
100
AcDbEntity
  8
0
  6
Continuous
 62
     7
370
    25
100
AcDbCircle
 10
-38.6875
 20
-51.8700961894
 30
0.0
 40
0.1880547349399555
100
AcDbArc
 50
266.1887389505
 51
355.5980503477
  0
ARC
  5
255
330
23
100
AcDbEntity
  8
0
  6
Continuous
 62
     7
370
    25
100
AcDbCircle
 10
-2.7045594159
 20
-51.9424229072
 30
0.0
 40
0.1250125046389986
100
AcDbArc
 50
237.6191380902
 51
292.7197987617
  0
ARC
  5
256
330
23
100
AcDbEntity
  8
0
  6
Continuous
 62
     7
370
    25
100
AcDbCircle
 10
-39.8125
 20
-51.8700961894
 30
0.0
 40
0.1880547349398688
100
AcDbArc
 50
184.4019496523
 51
273.8112610495
  0
ARC
  5
257
330
23
100
AcDbEntity
  8
0
  6
Continuous
 62
     7
370
    25
100
AcDbCircle
 10
-38.3
 20
-51.7
 30
0.0
 40
0.2000000000000242
100
AcDbArc
 50
90.0
 51
180.0
  0
ARC
  5
258
330
23
100
AcDbEntity
  8
0
  6
Continuous
 62
     7
370
    25
100
AcDbCircle
 10
-0.2
 20
-50.2
 30
0.0
 40
0.2000000000000029
100
AcDbArc
 50
0.0
 51
90.0
  0
ARC
  5
259
330
23
100
AcDbEntity
  8
0
  6
Continuous
 62
     7
370
    25
100
AcDbCircle
 10
-4.5
 20
-54.5
 30
0.0
 40
2.999999999999986
100
AcDbArc
 50
360.0
 51
90.0
  0
ARC
  5
25A
330
23
100
AcDbEntity
  8
0
  6
Continuous
 62
     7
370
    25
100
AcDbCircle
 10
-38.6875
 20
-68.7855662433
 30
0.0
 40
0.1880547349400438
100
AcDbArc
 50
266.1887389506
 51
355.5980503477
  0
ARC
  5
25B
330
23
100
AcDbEntity
  8
0
  6
Continuous
 62
     7
370
    25
100
AcDbCircle
 10
-4.5
 20
-54.6732050808
 30
0.0
 40
3.20000000000001
100
AcDbArc
 50
0.0
 51
54.8188395203
  0
ARC
  5
25C
330
23
100
AcDbEntity
  8
0
  6
Continuous
 62
     7
370
    25
100
AcDbCircle
 10
-1.3125
 20
-54.4855662433
 30
0.0
 40
0.1880547349398432
100
AcDbArc
 50
184.4019496522
 51
273.8112610495
  0
ARC
  5
25D
330
23
100
AcDbEntity
  8
0
  6
Continuous
 62
     7
370
    25
100
AcDbCircle
 10
-39.8125
 20
-68.7855662433
 30
0.0
 40
0.1880547349400438
100
AcDbArc
 50
184.4019496523
 51
273.8112610494
  0
ARC
  5
25E
330
23
100
AcDbEntity
  8
0
  6
Continuous
 62
     7
370
    25
100
AcDbCircle
 10
-1.3125
 20
-59.7855662433
 30
0.0
 40
0.1880547349398825
100
AcDbArc
 50
184.4019496523
 51
273.8112610495
  0
ARC
  5
25F
330
23
100
AcDbEntity
  8
0
  6
Continuous
 62
     7
370
    25
100
AcDbCircle
 10
-0.2
 20
-59.8
 30
0.0
 40
0.2000000000000099
100
AcDbArc
 50
270.0
 51
360.0
  0
ARC
  5
260
330
23
100
AcDbEntity
  8
0
  6
Continuous
 62
     7
370
    25
100
AcDbCircle
 10
-1.3
 20
-59.8
 30
0.0
 40
0.2000000000000171
100
AcDbArc
 50
180.0
 51
270.0
  0
ARC
  5
261
330
23
100
AcDbEntity
  8
0
  6
Continuous
 62
     7
370
    25
100
AcDbCircle
 10
-38.7
 20
-68.8
 30
0.0
 40
0.1999999999999886
100
AcDbArc
 50
270.0
 51
0.0
  0
ARC
  5
262
330
23
100
AcDbEntity
  8
0
  6
Continuous
 62
     7
370
    25
100
AcDbCircle
 10
-39.8
 20
-68.8
 30
0.0
 40
0.2000000000000028
100
AcDbArc
 50
180.0
 51
270.0
  0
VIEWPORT
  5
392
330
23
100
AcDbEntity
  8
0
100
AcDbViewport
 10
0.0
 20
0.0
 30
0.0
 40
205.6
 41
156.0
 68
     1
 69
     1
 12
0.0
 22
-25.0
 13
0.0
 23
0.0
 14
10.0
 24
10.0
 15
10.0
 25
10.0
 16
0.0
 26
0.0
 36
1.0
 17
0.0
 27
0.0
 37
0.0
 42
50.0
 43
0.0
 44
0.0
 45
851.3229571984
 50
0.0
 51
0.0
 72
   100
 90
   557152
  1

281
     0
 71
     1
 74
     0
110
0.0
120
0.0
130
0.0
111
1.0
121
0.0
131
0.0
112
0.0
122
1.0
132
0.0
 79
     0
146
0.0
  0
ENDBLK
  5
25
330
23
100
AcDbEntity
  8
0
100
AcDbBlockEnd
  0
BLOCK
  5
265
330
263
100
AcDbEntity
  8
0
100
AcDbBlockBegin
  2
*Paper_Space1
 70
     0
 10
0.0
 20
0.0
 30
0.0
  3
*Paper_Space1
  1

  0
LINE
  5
284
330
263
100
AcDbEntity
  8
0
  6
Continuous
 62
     7
370
    25
100
AcDbLine
 10
215.0
 20
39.8
 30
0.0
 11
215.0
 21
0.2
 31
0.0
  0
LINE
  5
285
330
263
100
AcDbEntity
  8
0
  6
Continuous
 62
     7
370
    25
100
AcDbLine
 10
214.8
 20
0.0
 30
0.0
 11
214.8
 21
40.0
 31
0.0
  0
LINE
  5
286
330
263
100
AcDbEntity
  8
0
  6
Continuous
 62
     7
370
    25
100
AcDbLine
 10
-214.8
 20
40.0
 30
0.0
 11
-214.8
 21
0.2
 31
0.0
  0
LINE
  5
287
330
263
100
AcDbEntity
  8
0
  6
Continuous
 62
     7
370
    25
100
AcDbLine
 10
549.8
 20
40.0
 30
0.0
 11
-549.8
 21
40.0
 31
0.0
  0
LINE
  5
288
330
263
100
AcDbEntity
  8
0
  6
Continuous
 62
     7
370
    25
100
AcDbLine
 10
-215.0
 20
0.0
 30
0.0
 11
-215.0
 21
39.8
 31
0.0
  0
LINE
  5
289
330
263
100
AcDbEntity
  8
0
  6
Continuous
 62
     7
370
    25
100
AcDbLine
 10
-215.0
 20
0.0
 30
0.0
 11
-214.8
 21
0.2
 31
0.0
  0
LINE
  5
28A
330
263
100
AcDbEntity
  8
0
  6
Continuous
 62
     7
370
    25
100
AcDbLine
 10
549.8
 20
0.0
 30
0.0
 11
-550.0
 21
0.0
 31
0.0
  0
LINE
  5
28B
330
263
100
AcDbEntity
  8
0
  6
Continuous
 62
     7
370
    25
100
AcDbLine
 10
550.0
 20
39.8
 30
0.0
 11
550.0
 21
0.2
 31
0.0
  0
LINE
  5
28C
330
263
100
AcDbEntity
  8
0
  6
Continuous
 62
     7
370
    25
100
AcDbLine
 10
-214.8
 20
0.2
 30
0.0
 11
550.0
 21
0.2
 31
0.0
  0
LINE
  5
28D
330
263
100
AcDbEntity
  8
0
  6
Continuous
 62
     7
370
    25
100
AcDbLine
 10
549.8
 20
0.0
 30
0.0
 11
549.8
 21
40.0
 31
0.0
  0
LINE
  5
28E
330
263
100
AcDbEntity
  8
0
  6
Continuous
 62
     7
370
    25
100
AcDbLine
 10
-549.8
 20
40.0
 30
0.0
 11
-549.8
 21
0.2
 31
0.0
  0
LINE
  5
28F
330
263
100
AcDbEntity
  8
0
  6
Continuous
 62
     7
370
    25
100
AcDbLine
 10
-550.0
 20
0.0
 30
0.0
 11
-550.0
 21
39.8
 31
0.0
  0
LINE
  5
290
330
263
100
AcDbEntity
  8
0
  6
Continuous
 62
     7
370
    25
100
AcDbLine
 10
-550.0
 20
0.0
 30
0.0
 11
-549.8
 21
0.2
 31
0.0
  0
LINE
  5
291
330
263
100
AcDbEntity
  8
0
  6
Continuous
 62
     8
370
    25
100
AcDbLine
 10
-549.8
 20
0.2
 30
0.0
 11
-215.0
 21
0.2
 31
0.0
  0
ARC
  5
292
330
263
100
AcDbEntity
  8
0
  6
Continuous
 62
     7
370
    25
100
AcDbCircle
 10
214.8
 20
39.8
 30
0.0
 40
0.2000000000000171
100
AcDbArc
 50
0.0
 51
90.0
  0
ARC
  5
293
330
263
100
AcDbEntity
  8
0
  6
Continuous
 62
     7
370
    25
100
AcDbCircle
 10
-214.8
 20
39.8
 30
0.0
 40
0.2000000000000242
100
AcDbArc
 50
90.0
 51
180.0
  0
ARC
  5
294
330
263
100
AcDbEntity
  8
0
  6
Continuous
 62
     7
370
    25
100
AcDbCircle
 10
214.8
 20
0.2
 30
0.0
 40
0.2000000000000475
100
AcDbArc
 50
270.0
 51
360.0
  0
ARC
  5
295
330
263
100
AcDbEntity
  8
0
  6
Continuous
 62
     7
370
    25
100
AcDbCircle
 10
549.8
 20
39.8
 30
0.0
 40
0.1999999999999602
100
AcDbArc
 50
360.0
 51
90.0
  0
ARC
  5
296
330
263
100
AcDbEntity
  8
0
  6
Continuous
 62
     7
370
    25
100
AcDbCircle
 10
-549.8
 20
39.8
 30
0.0
 40
0.1999999999999744
100
AcDbArc
 50
90.0
 51
180.0
  0
ARC
  5
297
330
263
100
AcDbEntity
  8
0
  6
Continuous
 62
     7
370
    25
100
AcDbCircle
 10
549.8
 20
0.2
 30
0.0
 40
0.2000000000000455
100
AcDbArc
 50
270.0
 51
360.0
  0
VIEWPORT
  5
394
330
263
100
AcDbEntity
  8
0
100
AcDbViewport
 10
0.0
 20
0.0
 30
0.0
 40
205.6
 41
156.0
 68
     1
 69
     1
 12
0.0
 22
-25.0
 13
0.0
 23
0.0
 14
10.0
 24
10.0
 15
10.0
 25
10.0
 16
0.0
 26
0.0
 36
1.0
 17
0.0
 27
0.0
 37
0.0
 42
50.0
 43
0.0
 44
0.0
 45
851.3229571984
 50
0.0
 51
0.0
 72
   100
 90
   557152
  1

281
     0
 71
     1
 74
     0
110
0.0
120
0.0
130
0.0
111
1.0
121
0.0
131
0.0
112
0.0
122
1.0
132
0.0
 79
     0
146
0.0
  0
ENDBLK
  5
266
330
263
100
AcDbEntity
  8
0
100
AcDbBlockEnd
  0
BLOCK
  5
29A
330
298
100
AcDbEntity
  8
0
100
AcDbBlockBegin
  2
*Paper_Space2
 70
     0
 10
0.0
 20
0.0
 30
0.0
  3
*Paper_Space2
  1

  0
SPLINE
  5
2A3
330
298
100
AcDbEntity
  8
0
  6
Continuous
 62
     7
370
    25
100
AcDbSpline
210
0.0
220
0.0
230
1.0
 70
     8
 71
     3
 72
     9
 73
     5
 74
     0
 42
0.000000001
 43
0.00000001
 40
0.0
 40
0.0
 40
0.0
 40
0.0
 40
0.6178794279108695
 40
1.0
 40
1.0
 40
1.0
 40
1.0
 10
179.0687181915785
 20
-57.7684532704526
 30
0.0
 10
179.0789166032687
 20
-57.76381730493423
 30
0.0
 10
179.0954221077888
 20
-57.75631427876284
 30
0.0
 10
179.0941890272594
 20
-57.75686916957687
 30
0.0
 10
179.093717841822
 20
-57.75708120477217
 30
0.0
  0
SPLINE
  5
2B3
330
298
100
AcDbEntity
  8
0
  6
Continuous
 62
     7
370
    25
100
AcDbSpline
210
0.0
220
0.0
230
1.0
 70
     8
 71
     3
 72
     9
 73
     5
 74
     0
 42
0.000000001
 43
0.00000001
 40
0.0
 40
0.0
 40
0.0
 40
0.0
 40
0.6178794279110367
 40
1.0
 40
1.0
 40
1.0
 40
1.0
 10
415.9494898890716
 20
-250.8581280208734
 30
0.0
 10
415.9596883007617
 20
-250.8534920553549
 30
0.0
 10
415.9761938052817
 20
-250.8459890291835
 30
0.0
 10
415.9749607247524
 20
-250.8465439199976
 30
0.0
 10
415.9744895393151
 20
-250.8467559551929
 30
0.0
  0
LWPOLYLINE
  5
2C4
330
298
100
AcDbEntity
  8
0
  6
Continuous
 62
     7
370
    25
100
AcDbPolyline
 90
        9
 70
   128
 43
0.0
 10
180.1708078463
 20
-55.8397935475
 10
180.1956804126
 20
-55.8604275055
 10
180.2141623966
 20
-55.8896817637
 10
180.2255435462
 20
-55.9264320974
 10
180.2293864901
 20
-55.969266212
 10
180.2255435462
 20
-56.0165380163
 10
180.2141623966
 20
-56.0664308815
 10
180.1956804126
 20
-56.1170274528
 10
180.1708078463
 20
-56.1663833322
  0
LWPOLYLINE
  5
2C6
330
298
100
AcDbEntity
  8
0
  6
Continuous
 62
     7
370
    25
100
AcDbPolyline
 90
        9
 70
   128
 43
0.0
 10
-152.0279579551
 20
103.1148392844
 10
-152.0225232117
 20
103.1466991264
 10
-152.0064278356
 20
103.1773346125
 10
-151.9802903631
 20
103.2055684382
 10
-151.9451152426
 20
103.2303155934
 10
-151.9022542343
 20
103.2506250589
 10
-151.8533544627
 20
103.2657163531
 10
-151.8002951185
 20
103.2750095262
 10
-151.7451152426
 20
103.2781474468
  0
LWPOLYLINE
  5
2D6
330
298
100
AcDbEntity
  8
0
  6
Continuous
 62
     7
370
    25
100
AcDbPolyline
 90
        5
 70
   128
 43
0.0
 10
153.9062290708
 20
-72.7040893723
 10
153.919408017
 20
-72.7193840626
 10
153.9266457603
 20
-72.7309535759
 10
153.9276641582
 20
-72.7383533024
 10
153.9272112104
 20
-72.7391751843
  0
LWPOLYLINE
  5
2DB
330
298
100
AcDbEntity
  8
0
  6
Continuous
 62
     7
370
    25
100
AcDbPolyline
 90
        6
 70
   128
 43
0.0
 10
-123.7436704548
 20
119.5106631333
 10
-123.7436867076
 20
119.5106537499
 10
-123.7046686432
 20
119.5287447311
 10
-123.6671500212
 20
119.5372658275
 10
-123.632572661
 20
119.5358895783
 10
-123.6022653514
 20
119.524668872
  0
LWPOLYLINE
  5
2E4
330
298
100
AcDbEntity
  8
0
  6
Continuous
 62
     7
370
    25
100
AcDbPolyline
 90
        9
 70
   128
 43
0.0
 10
417.0515795438
 20
-248.9294682979
 10
417.07645211
 20
-248.9501022559
 10
417.0949340941
 20
-248.9793565141
 10
417.1063152437
 20
-249.0161068479
 10
417.1101581876
 20
-249.0589409624
 10
417.1063152437
 20
-249.1062127668
 10
417.0949340941
 20
-249.156105632
 10
417.07645211
 20
-249.2067022032
 10
417.0515795438
 20
-249.2560580826
  0
LWPOLYLINE
  5
2E6
330
298
100
AcDbEntity
  8
0
  6
Continuous
 62
     7
370
    25
100
AcDbPolyline
 90
        9
 70
   128
 43
0.0
 10
-388.9087296526
 20
183.5218819946
 10
-388.9032949092
 20
183.5537418366
 10
-388.8871995331
 20
183.5843773227
 10
-388.8610620606
 20
183.6126111484
 10
-388.8258869401
 20
183.6373583036
 10
-388.7830259318
 20
183.657667769
 10
-388.7341261602
 20
183.6727590633
 10
-388.681066816
 20
183.6820522364
 10
-388.6258869401
 20
183.685190157
  0
LWPOLYLINE
  5
2F6
330
298
100
AcDbEntity
  8
0
  6
Continuous
 62
     7
370
    25
100
AcDbPolyline
 90
        5
 70
   128
 43
0.0
 10
390.7870007683
 20
-265.7937641227
 10
390.8001797145
 20
-265.809058813
 10
390.8074174578
 20
-265.8206283263
 10
390.8084358557
 20
-265.8280280528
 10
390.8079829079
 20
-265.8288499347
  0
LWPOLYLINE
  5
2FB
330
298
100
AcDbEntity
  8
0
  6
Continuous
 62
     7
370
    25
100
AcDbPolyline
 90
        6
 70
   128
 43
0.0
 10
-360.6244421523
 20
199.9177058434
 10
-360.6244584051
 20
199.9176964601
 10
-360.5854403407
 20
199.9357874412
 10
-360.5479217187
 20
199.9443085377
 10
-360.5133443585
 20
199.9429322885
 10
-360.4830370489
 20
199.9317115822
  0
LWPOLYLINE
  5
30B
330
298
100
AcDbEntity
  8
0
  6
Continuous
 62
     8
370
    25
100
AcDbPolyline
 90
        5
 70
   128
 43
0.0
 10
-142.2065633552
 20
89.5542654002
 10
-142.2075561977
 20
89.555794391
 10
-142.208399991
 20
89.5656438712
 10
-142.203182843
 20
89.5798715222
 10
-142.1921052458
 20
89.5979305833
  0
LWPOLYLINE
  5
31B
330
298
100
AcDbEntity
  8
0
  6
Continuous
 62
     8
370
    25
100
AcDbPolyline
 90
        5
 70
   128
 43
0.0
 10
-379.0873350526
 20
169.9613081104
 10
-379.0883278952
 20
169.9628371012
 10
-379.0891716885
 20
169.9726865814
 10
-379.0839545405
 20
169.9869142323
 10
-379.0728769433
 20
170.0049732935
  0
LINE
  5
31C
330
298
100
AcDbEntity
  8
0
  6
Continuous
 62
     7
370
    25
100
AcDbLine
 10
142.3513385538
 20
-74.6911440903
 30
0.0
 11
152.0457699069
 21
-73.8243158419
 31
0.0
  0
LINE
  5
31D
330
298
100
AcDbEntity
  8
0
  6
Continuous
 62
     7
370
    25
100
AcDbLine
 10
152.1279498284
 20
-73.7983203575
 30
0.0
 11
153.8647995878
 21
-72.7956583336
 31
0.0
  0
LINE
  5
31E
330
298
100
AcDbEntity
  8
0
  6
Continuous
 62
     7
370
    25
100
AcDbLine
 10
155.1685089875
 20
-71.5657503603
 30
0.0
 11
179.0687181916
 21
-57.7684532705
 31
0.0
  0
LINE
  5
31F
330
298
100
AcDbEntity
  8
0
  6
Continuous
 62
     7
370
    25
100
AcDbLine
 10
-142.1506757628
 20
89.506361622
 30
0.0
 11
142.2335347288
 21
-74.6651486059
 31
0.0
  0
LINE
  5
320
330
298
100
AcDbEntity
  8
0
  6
Continuous
 62
     7
370
    25
100
AcDbLine
 10
180.2293864901
 20
-57.4602299709
 30
0.0
 11
180.2293864901
 21
-55.969266212
 31
0.0
  0
LINE
  5
321
330
298
100
AcDbEntity
  8
0
  6
Continuous
 62
     7
370
    25
100
AcDbLine
 10
178.3350252878
 20
-58.1920051682
 30
0.0
 11
179.2693809826
 21
-58.1084596893
 31
0.0
  0
LINE
  5
322
330
298
100
AcDbEntity
  8
0
  6
Continuous
 62
     7
370
    25
100
AcDbLine
 10
179.3515609041
 20
-58.0824642049
 30
0.0
 11
180.1293783634
 21
-57.6334397434
 31
0.0
  0
LINE
  5
323
330
298
100
AcDbEntity
  8
0
  6
Continuous
 62
     7
370
    25
100
AcDbLine
 10
-151.9998156011
 20
101.7369780915
 30
0.0
 11
-142.2065633552
 21
89.5542654002
 31
0.0
  0
LINE
  5
324
330
298
100
AcDbEntity
  8
0
  6
Continuous
 62
     7
370
    25
100
AcDbLine
 10
-123.7436704548
 20
119.5106631333
 30
0.0
 11
-151.9450989892
 21
103.2303249771
 31
0.0
  0
LINE
  5
325
330
298
100
AcDbEntity
  8
0
  6
Continuous
 62
     7
370
    25
100
AcDbLine
 10
379.2321102513
 20
-267.7808188407
 30
0.0
 11
388.9265416044
 21
-266.9139905923
 31
0.0
  0
LINE
  5
326
330
298
100
AcDbEntity
  8
0
  6
Continuous
 62
     7
370
    25
100
AcDbLine
 10
389.0087215259
 20
-266.8879951079
 30
0.0
 11
390.7455712853
 21
-265.885333084
 31
0.0
  0
LINE
  5
327
330
298
100
AcDbEntity
  8
0
  6
Continuous
 62
     7
370
    25
100
AcDbLine
 10
392.049280685
 20
-264.6554251107
 30
0.0
 11
415.9494898891
 21
-250.8581280209
 31
0.0
  0
LINE
  5
328
330
298
100
AcDbEntity
  8
0
  6
Continuous
 62
     7
370
    25
100
AcDbLine
 10
-379.0314474603
 20
169.9134043322
 30
0.0
 11
379.1143064262
 21
-267.7548233563
 31
0.0
  0
LINE
  5
329
330
298
100
AcDbEntity
  8
0
  6
Continuous
 62
     7
370
    25
100
AcDbLine
 10
417.1101581876
 20
-250.5499047213
 30
0.0
 11
417.1101581876
 21
-249.0589409624
 31
0.0
  0
LINE
  5
32A
330
298
100
AcDbEntity
  8
0
  6
Continuous
 62
     7
370
    25
100
AcDbLine
 10
415.2157969853
 20
-251.2816799187
 30
0.0
 11
416.1501526801
 21
-251.1981344397
 31
0.0
  0
LINE
  5
32B
330
298
100
AcDbEntity
  8
0
  6
Continuous
 62
     7
370
    25
100
AcDbLine
 10
416.2323326015
 20
-251.1721389553
 30
0.0
 11
417.0101500609
 21
-250.7231144938
 31
0.0
  0
LINE
  5
32C
330
298
100
AcDbEntity
  8
0
  6
Continuous
 62
     7
370
    25
100
AcDbLine
 10
-388.8805872986
 20
182.1440208017
 30
0.0
 11
-379.0873350526
 21
169.9613081104
 31
0.0
  0
LINE
  5
32D
330
298
100
AcDbEntity
  8
0
  6
Continuous
 62
     7
370
    25
100
AcDbLine
 10
-360.6244421523
 20
199.9177058434
 30
0.0
 11
-388.8258706867
 21
183.6373676873
 31
0.0
  0
LINE
  5
32E
330
298
100
AcDbEntity
  8
0
  6
Continuous
 62
     7
370
    25
100
AcDbLine
 10
152.1693793113
 20
-72.3312639463
 30
0.0
 11
152.1693793113
 21
-73.7067513962
 31
0.0
  0
LINE
  5
32F
330
298
100
AcDbEntity
  8
0
  6
Continuous
 62
     7
370
    25
100
AcDbLine
 10
151.8865365989
 20
-73.7067513962
 30
0.0
 11
151.8865365989
 21
-72.3312639463
 31
0.0
  0
LINE
  5
330
330
298
100
AcDbEntity
  8
0
  6
Continuous
 62
     7
370
    25
100
AcDbLine
 10
180.1708078463
 20
-56.1663833322
 30
0.0
 11
152.1693793113
 21
-72.3312639463
 31
0.0
  0
LINE
  5
331
330
298
100
AcDbEntity
  8
0
  6
Continuous
 62
     7
370
    25
100
AcDbLine
 10
152.0279579551
 20
-72.0863149727
 30
0.0
 11
180.1708078463
 21
-55.8397935475
 31
0.0
  0
LINE
  5
332
330
298
100
AcDbEntity
  8
0
  6
Continuous
 62
     7
370
    25
100
AcDbLine
 10
151.8865365989
 20
-72.3312639463
 30
0.0
 11
-152.0279579551
 21
103.1148392844
 31
0.0
  0
LINE
  5
333
330
298
100
AcDbEntity
  8
0
  6
Continuous
 62
     7
370
    25
100
AcDbLine
 10
-151.7451152426
 20
103.2781474468
 30
0.0
 11
152.0279579551
 21
-72.0863149727
 31
0.0
  0
LINE
  5
334
330
298
100
AcDbEntity
  8
0
  6
Continuous
 62
     7
370
    25
100
AcDbLine
 10
180.1708078463
 20
-57.5418707821
 30
0.0
 11
180.1708078463
 21
-56.1663833322
 31
0.0
  0
LINE
  5
335
330
298
100
AcDbEntity
  8
0
  6
Continuous
 62
     7
370
    25
100
AcDbLine
 10
179.392990387
 20
-57.9908952436
 30
0.0
 11
180.1708078463
 21
-57.5418707821
 31
0.0
  0
LINE
  5
336
330
298
100
AcDbEntity
  8
0
  6
Continuous
 62
     7
370
    25
100
AcDbLine
 10
179.392990387
 20
-57.8402190115
 30
0.0
 11
179.392990387
 21
-57.9908952436
 31
0.0
  0
LINE
  5
337
330
298
100
AcDbEntity
  8
0
  6
Continuous
 62
     7
370
    25
100
AcDbLine
 10
155.2099384704
 20
-71.474181399
 30
0.0
 11
179.1101476746
 21
-57.6768843092
 31
0.0
  0
LINE
  5
338
330
298
100
AcDbEntity
  8
0
  6
Continuous
 62
     7
370
    25
100
AcDbLine
 10
152.1693793113
 20
-73.7067513962
 30
0.0
 11
153.9062290708
 21
-72.7040893723
 31
0.0
  0
LINE
  5
339
330
298
100
AcDbEntity
  8
0
  6
Continuous
 62
     7
370
    25
100
AcDbLine
 10
142.1921052458
 20
-74.5735796446
 30
0.0
 11
151.8865365989
 21
-73.7067513962
 31
0.0
  0
LINE
  5
33A
330
298
100
AcDbEntity
  8
0
  6
Continuous
 62
     7
370
    25
100
AcDbLine
 10
-142.1921052458
 20
89.5979305833
 30
0.0
 11
142.1921052458
 21
-74.5735796446
 31
0.0
  0
LINE
  5
33B
330
298
100
AcDbEntity
  8
0
  6
Continuous
 62
     7
370
    25
100
AcDbLine
 10
-152.0279579551
 20
101.833637846
 30
0.0
 11
-142.1921052458
 21
89.5979305833
 31
0.0
  0
LINE
  5
33C
330
298
100
AcDbEntity
  8
0
  6
Continuous
 62
     7
370
    25
100
AcDbLine
 10
-152.0279579551
 20
103.1148392844
 30
0.0
 11
-152.0279579551
 21
101.833637846
 31
0.0
  0
LINE
  5
33D
330
298
100
AcDbEntity
  8
0
  6
Continuous
 62
     7
370
    25
100
AcDbLine
 10
-123.6022653514
 20
119.524668872
 30
0.0
 11
-151.7451152426
 21
103.2781474468
 31
0.0
  0
LINE
  5
33E
330
298
100
AcDbEntity
  8
0
  6
Continuous
 62
     7
370
    25
100
AcDbLine
 10
180.1708078463
 20
-55.8397935475
 30
0.0
 11
-123.6022653514
 21
119.524668872
 31
0.0
  0
LINE
  5
33F
330
298
100
AcDbEntity
  8
0
  6
Continuous
 62
     7
370
    25
100
AcDbLine
 10
179.1101476746
 20
-57.9908952436
 30
0.0
 11
179.1101476746
 21
-57.8402190115
 31
0.0
  0
LINE
  5
340
330
298
100
AcDbEntity
  8
0
  6
Continuous
 62
     7
370
    25
100
AcDbLine
 10
389.0501510088
 20
-265.4209386967
 30
0.0
 11
389.0501510088
 21
-266.7964261466
 31
0.0
  0
LINE
  5
341
330
298
100
AcDbEntity
  8
0
  6
Continuous
 62
     7
370
    25
100
AcDbLine
 10
388.7673082964
 20
-266.7964261466
 30
0.0
 11
388.7673082964
 21
-265.4209386967
 31
0.0
  0
LINE
  5
342
330
298
100
AcDbEntity
  8
0
  6
Continuous
 62
     7
370
    25
100
AcDbLine
 10
417.0515795438
 20
-249.2560580826
 30
0.0
 11
389.0501510088
 21
-265.4209386967
 31
0.0
  0
LINE
  5
343
330
298
100
AcDbEntity
  8
0
  6
Continuous
 62
     7
370
    25
100
AcDbLine
 10
388.9087296526
 20
-265.1759897232
 30
0.0
 11
417.0515795438
 21
-248.9294682979
 31
0.0
  0
LINE
  5
344
330
298
100
AcDbEntity
  8
0
  6
Continuous
 62
     7
370
    25
100
AcDbLine
 10
388.7673082964
 20
-265.4209386967
 30
0.0
 11
-388.9087296526
 21
183.5218819946
 31
0.0
  0
LINE
  5
345
330
298
100
AcDbEntity
  8
0
  6
Continuous
 62
     7
370
    25
100
AcDbLine
 10
-388.6258869401
 20
183.685190157
 30
0.0
 11
388.9087296526
 21
-265.1759897232
 31
0.0
  0
LINE
  5
346
330
298
100
AcDbEntity
  8
0
  6
Continuous
 62
     7
370
    25
100
AcDbLine
 10
417.0515795438
 20
-250.6315455325
 30
0.0
 11
417.0515795438
 21
-249.2560580826
 31
0.0
  0
LINE
  5
347
330
298
100
AcDbEntity
  8
0
  6
Continuous
 62
     7
370
    25
100
AcDbLine
 10
416.2737620845
 20
-251.080569994
 30
0.0
 11
417.0515795438
 21
-250.6315455325
 31
0.0
  0
LINE
  5
348
330
298
100
AcDbEntity
  8
0
  6
Continuous
 62
     7
370
    25
100
AcDbLine
 10
416.2737620845
 20
-250.929893762
 30
0.0
 11
416.2737620845
 21
-251.080569994
 31
0.0
  0
LINE
  5
349
330
298
100
AcDbEntity
  8
0
  6
Continuous
 62
     7
370
    25
100
AcDbLine
 10
392.0907101679
 20
-264.5638561494
 30
0.0
 11
415.990919372
 21
-250.7665590596
 31
0.0
  0
LINE
  5
34A
330
298
100
AcDbEntity
  8
0
  6
Continuous
 62
     7
370
    25
100
AcDbLine
 10
389.0501510088
 20
-266.7964261466
 30
0.0
 11
390.7870007683
 21
-265.7937641227
 31
0.0
  0
LINE
  5
34B
330
298
100
AcDbEntity
  8
0
  6
Continuous
 62
     7
370
    25
100
AcDbLine
 10
379.0728769433
 20
-267.663254395
 30
0.0
 11
388.7673082964
 21
-266.7964261466
 31
0.0
  0
LINE
  5
34C
330
298
100
AcDbEntity
  8
0
  6
Continuous
 62
     7
370
    25
100
AcDbLine
 10
-379.0728769433
 20
170.0049732935
 30
0.0
 11
379.0728769433
 21
-267.663254395
 31
0.0
  0
LINE
  5
34D
330
298
100
AcDbEntity
  8
0
  6
Continuous
 62
     7
370
    25
100
AcDbLine
 10
-388.9087296526
 20
182.2406805562
 30
0.0
 11
-379.0728769433
 21
170.0049732935
 31
0.0
  0
LINE
  5
34E
330
298
100
AcDbEntity
  8
0
  6
Continuous
 62
     7
370
    25
100
AcDbLine
 10
-388.9087296526
 20
183.5218819946
 30
0.0
 11
-388.9087296526
 21
182.2406805562
 31
0.0
  0
LINE
  5
34F
330
298
100
AcDbEntity
  8
0
  6
Continuous
 62
     7
370
    25
100
AcDbLine
 10
-360.4830370489
 20
199.9317115822
 30
0.0
 11
-388.6258869401
 21
183.685190157
 31
0.0
  0
LINE
  5
350
330
298
100
AcDbEntity
  8
0
  6
Continuous
 62
     7
370
    25
100
AcDbLine
 10
417.0515795438
 20
-248.9294682979
 30
0.0
 11
-360.4830370489
 21
199.9317115822
 31
0.0
  0
LINE
  5
351
330
298
100
AcDbEntity
  8
0
  6
Continuous
 62
     7
370
    25
100
AcDbLine
 10
415.990919372
 20
-251.080569994
 30
0.0
 11
415.990919372
 21
-250.929893762
 31
0.0
  0
LINE
  5
352
330
298
100
AcDbEntity
  8
0
  6
Continuous
 62
     8
370
    25
100
AcDbLine
 10
179.1101476746
 20
-57.8402190115
 30
0.0
 11
179.0272752432
 21
-57.7923777753
 31
0.0
  0
LINE
  5
353
330
298
100
AcDbEntity
  8
0
  6
Continuous
 62
     8
370
    25
100
AcDbLine
 10
178.6051824791
 20
-58.0360467414
 30
0.0
 11
179.1101476746
 21
-57.9908952436
 31
0.0
  0
LINE
  5
354
330
298
100
AcDbEntity
  8
0
  6
Continuous
 62
     8
370
    25
100
AcDbLine
 10
415.990919372
 20
-250.929893762
 30
0.0
 11
415.9080469407
 21
-250.8820525257
 31
0.0
  0
LINE
  5
355
330
298
100
AcDbEntity
  8
0
  6
Continuous
 62
     8
370
    25
100
AcDbLine
 10
415.4859541765
 20
-251.1257214918
 30
0.0
 11
415.990919372
 21
-251.080569994
 31
0.0
  0
ARC
  5
356
330
298
100
AcDbEntity
  8
0
  6
Continuous
 62
     7
370
    25
100
AcDbCircle
 10
152.0279579551
 20
-73.625110585
 30
0.0
 40
0.2000000000003642
100
AcDbArc
 50
275.1095180311
 51
299.9973117336
  0
ARC
  5
357
330
298
100
AcDbEntity
  8
0
  6
Continuous
 62
     7
370
    25
100
AcDbCircle
 10
153.7648077146
 20
-72.6224485611
 30
0.0
 40
0.1999999999993381
100
AcDbArc
 50
299.9973117334
 51
324.2935155138
  0
ARC
  5
358
330
298
100
AcDbEntity
  8
0
  6
Continuous
 62
     7
370
    25
100
AcDbCircle
 10
142.333526602
 20
-74.4919388334
 30
0.0
 40
0.1999999999999546
100
AcDbArc
 50
240.0026882663
 51
275.1095180311
  0
ARC
  5
359
330
298
100
AcDbEntity
  8
0
  6
Continuous
 62
     7
370
    25
100
AcDbCircle
 10
179.2515690308
 20
-57.9092544324
 30
0.0
 40
0.1999999999999712
100
AcDbArc
 50
275.1095180311
 51
299.9973117336
  0
ARC
  5
35A
330
298
100
AcDbEntity
  8
0
  6
Continuous
 62
     7
370
    25
100
AcDbCircle
 10
180.0293864901
 20
-57.4602299709
 30
0.0
 40
0.1999999999998898
100
AcDbArc
 50
299.9973117336
 51
0.0
  0
ARC
  5
35B
330
298
100
AcDbEntity
  8
0
  6
Continuous
 62
     7
370
    25
100
AcDbCircle
 10
-142.0506838895
 20
89.6795713945
 30
0.0
 40
0.2000000000010481
100
AcDbArc
 50
218.7945715983
 51
240.0026882663
  0
ARC
  5
35C
330
298
100
AcDbEntity
  8
0
  6
Continuous
 62
     7
370
    25
100
AcDbCircle
 10
388.9087296526
 20
-266.7147853354
 30
0.0
 40
0.2000000000005058
100
AcDbArc
 50
275.1095180311
 51
299.9973117336
  0
ARC
  5
35D
330
298
100
AcDbEntity
  8
0
  6
Continuous
 62
     7
370
    25
100
AcDbCircle
 10
390.6455794121
 20
-265.7121233116
 30
0.0
 40
0.2000000000005255
100
AcDbArc
 50
299.9973117335
 51
324.2935155137
  0
ARC
  5
35E
330
298
100
AcDbEntity
  8
0
  6
Continuous
 62
     7
370
    25
100
AcDbCircle
 10
379.2142982995
 20
-267.5816135839
 30
0.0
 40
0.1999999999999811
100
AcDbArc
 50
240.0026882663
 51
275.1095180311
  0
ARC
  5
35F
330
298
100
AcDbEntity
  8
0
  6
Continuous
 62
     7
370
    25
100
AcDbCircle
 10
416.1323407283
 20
-250.9989291828
 30
0.0
 40
0.1999999999994955
100
AcDbArc
 50
275.109518031
 51
299.9973117337
  0
ARC
  5
360
330
298
100
AcDbEntity
  8
0
  6
Continuous
 62
     7
370
    25
100
AcDbCircle
 10
416.9101581876
 20
-250.5499047213
 30
0.0
 40
0.1999999999998609
100
AcDbArc
 50
299.9973117336
 51
0.0
  0
ARC
  5
361
330
298
100
AcDbEntity
  8
0
  6
Continuous
 62
     7
370
    25
100
AcDbCircle
 10
-378.931455587
 20
170.0866141047
 30
0.0
 40
0.2000000000006127
100
AcDbArc
 50
218.7945715983
 51
240.0026882663
  0
ARC
  5
362
330
298
100
AcDbEntity
  8
0
  6
Continuous
 62
     7
370
    25
100
AcDbCircle
 10
152.1935798191
 20
-72.3452361168
 30
0.0
 40
0.3073609615144414
100
AcDbArc
 50
122.60547834
 51
177.3945215143
  0
ARC
  5
363
330
298
100
AcDbEntity
  8
0
  6
Continuous
 62
     7
370
    25
100
AcDbCircle
 10
151.8623360911
 20
-72.3452361168
 30
0.0
 40
0.3073609615145389
100
AcDbArc
 50
2.6054784857
 51
57.39452166
  0
ARC
  5
364
330
298
100
AcDbEntity
  8
0
  6
Continuous
 62
     7
370
    25
100
AcDbCircle
 10
152.0279579551
 20
-72.0583217293
 30
0.0
 40
0.307404381582637
100
AcDbArc
 50
242.6096722366
 51
297.3903277634
  0
ARC
  5
365
330
298
100
AcDbEntity
  8
0
  6
Continuous
 62
     7
370
    25
100
AcDbCircle
 10
152.0279579551
 20
-73.4338091792
 30
0.0
 40
0.3074043815825108
100
AcDbArc
 50
242.6096722366
 51
297.3903277634
  0
ARC
  5
366
330
298
100
AcDbEntity
  8
0
  6
Continuous
 62
     7
370
    25
100
AcDbCircle
 10
179.2205606401
 20
-57.8122481328
 30
0.0
 40
0.174683678971427
100
AcDbArc
 50
350.7859630095
 51
129.2032852357
  0
ARC
  5
367
330
298
100
AcDbEntity
  8
0
  6
Continuous
 62
     7
370
    25
100
AcDbCircle
 10
157.4691310371
 20
-75.174861933
 30
0.0
 40
4.335779914617065
100
AcDbArc
 50
121.4032430568
 51
145.2597772157
  0
ARC
  5
368
330
298
100
AcDbEntity
  8
0
  6
Continuous
 62
     7
370
    25
100
AcDbCircle
 10
155.127410425
 20
-71.475728047
 30
0.0
 40
0.0989601370402519
100
AcDbArc
 50
236.4521035877
 51
294.5384760731
  0
ARC
  5
369
330
298
100
AcDbEntity
  8
0
  6
Continuous
 62
     7
370
    25
100
AcDbCircle
 10
179.2515690308
 20
-57.5672767946
 30
0.0
 40
0.3074043815822395
100
AcDbArc
 50
242.6096722366
 51
297.3903277634
  0
ARC
  5
36A
330
298
100
AcDbEntity
  8
0
  6
Continuous
 62
     7
370
    25
100
AcDbCircle
 10
179.2515690308
 20
-57.7179530266
 30
0.0
 40
0.3074043815822332
100
AcDbArc
 50
242.6096722366
 51
297.3903277634
  0
ARC
  5
36B
330
298
100
AcDbEntity
  8
0
  6
Continuous
 62
     7
370
    25
100
AcDbCircle
 10
-151.8601705077
 20
101.8279519686
 30
0.0
 40
0.167883759494707
100
AcDbArc
 50
178.0591387047
 51
207.5547436707
  0
ARC
  5
36C
330
298
100
AcDbEntity
  8
0
  6
Continuous
 62
     7
370
    25
100
AcDbCircle
 10
389.0743515166
 20
-265.4349108672
 30
0.0
 40
0.3073609615146448
100
AcDbArc
 50
122.6054783401
 51
177.3945215143
  0
ARC
  5
36D
330
298
100
AcDbEntity
  8
0
  6
Continuous
 62
     7
370
    25
100
AcDbCircle
 10
388.7431077886
 20
-265.4349108672
 30
0.0
 40
0.3073609615141794
100
AcDbArc
 50
2.6054784856
 51
57.39452166
  0
ARC
  5
36E
330
298
100
AcDbEntity
  8
0
  6
Continuous
 62
     7
370
    25
100
AcDbCircle
 10
388.9087296526
 20
-265.1479964797
 30
0.0
 40
0.3074043815823599
100
AcDbArc
 50
242.6096722366
 51
297.3903277634
  0
ARC
  5
36F
330
298
100
AcDbEntity
  8
0
  6
Continuous
 62
     7
370
    25
100
AcDbCircle
 10
388.9087296526
 20
-266.5234839296
 30
0.0
 40
0.3074043815822833
100
AcDbArc
 50
242.6096722366
 51
297.3903277634
  0
ARC
  5
370
330
298
100
AcDbEntity
  8
0
  6
Continuous
 62
     7
370
    25
100
AcDbCircle
 10
416.1013323375
 20
-250.9019228832
 30
0.0
 40
0.174683678971354
100
AcDbArc
 50
350.7859630095
 51
129.2032852357
  0
ARC
  5
371
330
298
100
AcDbEntity
  8
0
  6
Continuous
 62
     7
370
    25
100
AcDbCircle
 10
394.3499027346
 20
-268.2645366834
 30
0.0
 40
4.33577991461687
100
AcDbArc
 50
121.4032430568
 51
145.2597772157
  0
ARC
  5
372
330
298
100
AcDbEntity
  8
0
  6
Continuous
 62
     7
370
    25
100
AcDbCircle
 10
392.0081821225
 20
-264.5654027974
 30
0.0
 40
0.0989601370258728
100
AcDbArc
 50
236.4521036063
 51
294.5384760752
  0
ARC
  5
373
330
298
100
AcDbEntity
  8
0
  6
Continuous
 62
     7
370
    25
100
AcDbCircle
 10
416.1323407283
 20
-250.656951545
 30
0.0
 40
0.3074043815821066
100
AcDbArc
 50
242.6096722366
 51
297.3903277634
  0
ARC
  5
374
330
298
100
AcDbEntity
  8
0
  6
Continuous
 62
     7
370
    25
100
AcDbCircle
 10
416.1323407283
 20
-250.807627777
 30
0.0
 40
0.307404381582258
100
AcDbArc
 50
242.6096722366
 51
297.3903277634
  0
ARC
  5
375
330
298
100
AcDbEntity
  8
0
  6
Continuous
 62
     7
370
    25
100
AcDbCircle
 10
-388.7409422052
 20
182.2349946788
 30
0.0
 40
0.1678837594947908
100
AcDbArc
 50
178.0591387047
 51
207.5547436707
  0
ARC
  5
376
330
298
100
AcDbEntity
  8
0
  6
Continuous
 62
     8
370
    25
100
AcDbCircle
 10
152.0450764631
 20
-73.6586373226
 30
0.0
 40
0.1656799705335636
100
AcDbArc
 50
196.882125473
 51
270.23980882
  0
ARC
  5
377
330
298
100
AcDbEntity
  8
0
  6
Continuous
 62
     8
370
    25
100
AcDbCircle
 10
152.0687674652
 20
-73.7163872115
 30
0.0
 40
0.1010722143563984
100
AcDbArc
 50
305.8415244427
 51
5.4706559507
  0
ARC
  5
378
330
298
100
AcDbEntity
  8
0
  6
Continuous
 62
     8
370
    25
100
AcDbCircle
 10
142.35064511
 20
-74.525465571
 30
0.0
 40
0.1656799705333657
100
AcDbArc
 50
196.882125473
 51
270.23980882
  0
ARC
  5
379
330
298
100
AcDbEntity
  8
0
  6
Continuous
 62
     8
370
    25
100
AcDbCircle
 10
153.8114389435
 20
-72.7163591675
 30
0.0
 40
0.095580940091899
100
AcDbArc
 50
303.9367271457
 51
7.3754532482
  0
ARC
  5
37A
330
298
100
AcDbEntity
  8
0
  6
Continuous
 62
     8
370
    25
100
AcDbCircle
 10
155.1148013592
 20
-71.4862942046
 30
0.0
 40
0.0959051093751994
100
AcDbArc
 50
304.0563508654
 51
7.2558295279
  0
ARC
  5
37B
330
298
100
AcDbEntity
  8
0
  6
Continuous
 62
     8
370
    25
100
AcDbCircle
 10
179.0150105633
 20
-57.6889971148
 30
0.0
 40
0.0959051093752402
100
AcDbArc
 50
304.0563508655
 51
7.2558295279
  0
ARC
  5
37C
330
298
100
AcDbEntity
  8
0
  6
Continuous
 62
     8
370
    25
100
AcDbCircle
 10
142.2901056263
 20
-74.5843969921
 30
0.0
 40
0.0985955860368974
100
AcDbArc
 50
173.7011524941
 51
234.9866671125
  0
ARC
  5
37D
330
298
100
AcDbEntity
  8
0
  6
Continuous
 62
     8
370
    25
100
AcDbCircle
 10
-142.0941048653
 20
89.5871132358
 30
0.0
 40
0.0985955859812568
100
AcDbArc
 50
173.701152475
 51
234.9866671316
  0
ARC
  5
37E
330
298
100
AcDbEntity
  8
0
  6
Continuous
 62
     8
370
    25
100
AcDbCircle
 10
179.0019346802
 20
-57.8318378599
 30
0.0
 40
0.1085370712961182
100
AcDbArc
 50
355.5712538984
 51
41.578837881
  0
ARC
  5
37F
330
298
100
AcDbEntity
  8
0
  6
Continuous
 62
     8
370
    25
100
AcDbCircle
 10
180.1292950776
 20
-57.4502486955
 30
0.0
 40
0.1005878556986765
100
AcDbArc
 50
294.3746582935
 51
354.3052007488
  0
ARC
  5
380
330
298
100
AcDbEntity
  8
0
  6
Continuous
 62
     8
370
    25
100
AcDbCircle
 10
179.2923785409
 20
-58.0005310589
 30
0.0
 40
0.1010722143561826
100
AcDbArc
 50
305.8415244426
 51
5.4706559507
  0
ARC
  5
381
330
298
100
AcDbEntity
  8
0
  6
Continuous
 62
     8
370
    25
100
AcDbCircle
 10
179.2645245039
 20
-57.9484197269
 30
0.0
 40
0.1601136313354107
100
AcDbArc
 50
195.383803594
 51
271.738130699
  0
ARC
  5
382
330
298
100
AcDbEntity
  8
0
  6
Continuous
 62
     8
370
    25
100
AcDbCircle
 10
180.0701960002
 20
-57.5515065974
 30
0.0
 40
0.1010722143563068
100
AcDbArc
 50
305.8415244427
 51
5.4706559507
  0
ARC
  5
383
330
298
100
AcDbEntity
  8
0
  6
Continuous
 62
     8
370
    25
100
AcDbCircle
 10
388.9258481606
 20
-266.748312073
 30
0.0
 40
0.165679970533247
100
AcDbArc
 50
196.8821254729
 51
270.2398088201
  0
ARC
  5
384
330
298
100
AcDbEntity
  8
0
  6
Continuous
 62
     8
370
    25
100
AcDbCircle
 10
388.9495391627
 20
-266.8060619619
 30
0.0
 40
0.1010722143564873
100
AcDbArc
 50
305.8415244428
 51
5.4706559507
  0
ARC
  5
385
330
298
100
AcDbEntity
  8
0
  6
Continuous
 62
     8
370
    25
100
AcDbCircle
 10
379.2314168075
 20
-267.6151403214
 30
0.0
 40
0.1656799705335306
100
AcDbArc
 50
196.882125473
 51
270.23980882
  0
ARC
  5
386
330
298
100
AcDbEntity
  8
0
  6
Continuous
 62
     8
370
    25
100
AcDbCircle
 10
390.692210641
 20
-265.8060339179
 30
0.0
 40
0.0955809401009447
100
AcDbArc
 50
303.936727149
 51
7.3754532449
  0
ARC
  5
387
330
298
100
AcDbEntity
  8
0
  6
Continuous
 62
     8
370
    25
100
AcDbCircle
 10
391.9955730566
 20
-264.575968955
 30
0.0
 40
0.0959051094388759
100
AcDbArc
 50
304.0563508888
 51
7.2558295045
  0
ARC
  5
388
330
298
100
AcDbEntity
  8
0
  6
Continuous
 62
     8
370
    25
100
AcDbCircle
 10
415.8957822608
 20
-250.7786718653
 30
0.0
 40
0.0959051093117997
100
AcDbArc
 50
304.0563508421
 51
7.2558295512
  0
ARC
  5
389
330
298
100
AcDbEntity
  8
0
  6
Continuous
 62
     8
370
    25
100
AcDbCircle
 10
379.1708773237
 20
-267.6740717425
 30
0.0
 40
0.0985955859343735
100
AcDbArc
 50
173.7011524588
 51
234.9866671478
  0
ARC
  5
38A
330
298
100
AcDbEntity
  8
0
  6
Continuous
 62
     8
370
    25
100
AcDbCircle
 10
-378.9748765626
 20
169.9941559461
 30
0.0
 40
0.0985955861741052
100
AcDbArc
 50
173.7011525414
 51
234.9866670652
  0
ARC
  5
38B
330
298
100
AcDbEntity
  8
0
  6
Continuous
 62
     8
370
    25
100
AcDbCircle
 10
415.8827063777
 20
-250.9215126103
 30
0.0
 40
0.1085370712961095
100
AcDbArc
 50
355.5712538984
 51
41.578837881
  0
ARC
  5
38C
330
298
100
AcDbEntity
  8
0
  6
Continuous
 62
     8
370
    25
100
AcDbCircle
 10
417.0100667751
 20
-250.539923446
 30
0.0
 40
0.1005878556988044
100
AcDbArc
 50
294.3746582936
 51
354.3052007488
  0
ARC
  5
38D
330
298
100
AcDbEntity
  8
0
  6
Continuous
 62
     8
370
    25
100
AcDbCircle
 10
416.1731502384
 20
-251.0902058094
 30
0.0
 40
0.101072214356648
100
AcDbArc
 50
305.8415244428
 51
5.4706559506
  0
ARC
  5
38E
330
298
100
AcDbEntity
  8
0
  6
Continuous
 62
     8
370
    25
100
AcDbCircle
 10
416.1452962013
 20
-251.0380944774
 30
0.0
 40
0.1601136313358626
100
AcDbArc
 50
195.3838035941
 51
271.7381306988
  0
ARC
  5
38F
330
298
100
AcDbEntity
  8
0
  6
Continuous
 62
     8
370
    25
100
AcDbCircle
 10
416.9509676977
 20
-250.6411813478
 30
0.0
 40
0.1010722143563792
100
AcDbArc
 50
305.8415244427
 51
5.4706559507
  0
VIEWPORT
  5
396
330
298
100
AcDbEntity
  8
0
100
AcDbViewport
 10
0.0
 20
0.0
 30
0.0
 40
205.6
 41
156.0
 68
     1
 69
     1
 12
0.0
 22
-25.0
 13
0.0
 23
0.0
 14
10.0
 24
10.0
 15
10.0
 25
10.0
 16
0.0
 26
0.0
 36
1.0
 17
0.0
 27
0.0
 37
0.0
 42
50.0
 43
0.0
 44
0.0
 45
851.3229571984
 50
0.0
 51
0.0
 72
   100
 90
   557152
  1

281
     0
 71
     1
 74
     0
110
0.0
120
0.0
130
0.0
111
1.0
121
0.0
131
0.0
112
0.0
122
1.0
132
0.0
 79
     0
146
0.0
  0
ENDBLK
  5
29B
330
298
100
AcDbEntity
  8
0
100
AcDbBlockEnd
  0
ENDSEC
  0
SECTION
  2
ENTITIES
  0
LINE
  5
C5
330
1F
100
AcDbEntity
  8
0
  6
Continuous
 62
     7
370
    25
100
AcDbLine
 10
214.9
 20
16.9422649731
 30
0.0
 11
214.8
 21
17.1154700538
 31
0.0
  0
LINE
  5
C6
330
1F
100
AcDbEntity
  8
0
  6
Continuous
 62
     7
370
    25
100
AcDbLine
 10
215.0
 20
17.1154700538
 30
0.0
 11
214.8
 21
17.1154700538
 31
0.0
  0
LINE
  5
C7
330
1F
100
AcDbEntity
  8
0
  6
Continuous
 62
     7
370
    25
100
AcDbLine
 10
214.9
 20
16.9422649731
 30
0.0
 11
185.6015464328
 21
0.0267949192
 31
0.0
  0
LINE
  5
C8
330
1F
100
AcDbEntity
  8
0
  6
Continuous
 62
     7
370
    25
100
AcDbLine
 10
201.190003701
 20
9.0267949192
 30
0.0
 11
201.090003701
 21
9.2
 31
0.0
  0
LINE
  5
C9
330
1F
100
AcDbEntity
  8
0
  6
Continuous
 62
     7
370
    25
100
AcDbLine
 10
201.090003701
 20
9.2
 30
0.0
 11
214.8
 21
17.1154700538
 31
0.0
  0
LINE
  5
CA
330
1F
100
AcDbEntity
  8
0
  6
Continuous
 62
     7
370
    25
100
AcDbLine
 10
215.0
 20
18.8
 30
0.0
 11
215.0
 21
17.1154700538
 31
0.0
  0
LINE
  5
CB
330
1F
100
AcDbEntity
  8
0
  6
Continuous
 62
     7
370
    25
100
AcDbLine
 10
214.8
 20
17.1154700538
 30
0.0
 11
214.8
 21
19.0
 31
0.0
  0
LINE
  5
CC
330
1F
100
AcDbEntity
  8
0
  6
Continuous
 62
     7
370
    25
100
AcDbLine
 10
215.0
 20
18.8
 30
0.0
 11
-215.0
 21
18.8
 31
0.0
  0
LINE
  5
CD
330
1F
100
AcDbEntity
  8
0
  6
Continuous
 62
     7
370
    25
100
AcDbLine
 10
201.090003701
 20
9.0
 30
0.0
 11
201.090003701
 21
9.2
 31
0.0
  0
LINE
  5
CE
330
1F
100
AcDbEntity
  8
0
  6
Continuous
 62
     7
370
    25
100
AcDbLine
 10
-214.8
 20
19.0
 30
0.0
 11
214.8
 21
19.0
 31
0.0
  0
LINE
  5
CF
330
1F
100
AcDbEntity
  8
0
  6
Continuous
 62
     7
370
    25
100
AcDbLine
 10
201.090003701
 20
9.0
 30
0.0
 11
-201.090003701
 21
9.0
 31
0.0
  0
LINE
  5
D0
330
1F
100
AcDbEntity
  8
0
  6
Continuous
 62
     7
370
    25
100
AcDbLine
 10
-201.090003701
 20
9.0
 30
0.0
 11
-201.090003701
 21
9.2
 31
0.0
  0
LINE
  5
D1
330
1F
100
AcDbEntity
  8
0
  6
Continuous
 62
     7
370
    25
100
AcDbLine
 10
-201.090003701
 20
9.2
 30
0.0
 11
201.090003701
 21
9.2
 31
0.0
  0
LINE
  5
D2
330
1F
100
AcDbEntity
  8
0
  6
Continuous
 62
     7
370
    25
100
AcDbLine
 10
-215.0
 20
17.2309401077
 30
0.0
 11
-201.090003701
 21
9.2
 31
0.0
  0
LINE
  5
D3
330
1F
100
AcDbEntity
  8
0
  6
Continuous
 62
     7
370
    25
100
AcDbLine
 10
-215.0
 20
18.8
 30
0.0
 11
-215.0
 21
17.1154700538
 31
0.0
  0
LINE
  5
D4
330
1F
100
AcDbEntity
  8
0
  6
Continuous
 62
     7
370
    25
100
AcDbLine
 10
-201.190003701
 20
9.0267949192
 30
0.0
 11
-201.090003701
 21
9.2
 31
0.0
  0
LINE
  5
D5
330
1F
100
AcDbEntity
  8
0
  6
Continuous
 62
     7
370
    25
100
AcDbLine
 10
-185.6015464328
 20
0.0267949192
 30
0.0
 11
-214.9
 21
16.9422649731
 31
0.0
  0
LINE
  5
D6
330
1F
100
AcDbEntity
  8
0
  6
Continuous
 62
     7
370
    25
100
AcDbLine
 10
-185.5015464328
 20
0.2
 30
0.0
 11
185.5015464328
 21
0.2
 31
0.0
  0
LINE
  5
D7
330
1F
100
AcDbEntity
  8
0
  6
Continuous
 62
     7
370
    25
100
AcDbLine
 10
185.5015464328
 20
0.2
 30
0.0
 11
185.6015464328
 21
0.0267949192
 31
0.0
  0
LINE
  5
D8
330
1F
100
AcDbEntity
  8
0
  6
Continuous
 62
     7
370
    25
100
AcDbLine
 10
185.5015464328
 20
0.0
 30
0.0
 11
185.5015464328
 21
0.2
 31
0.0
  0
LINE
  5
D9
330
1F
100
AcDbEntity
  8
0
  6
Continuous
 62
     7
370
    25
100
AcDbLine
 10
185.5015464328
 20
0.0
 30
0.0
 11
-185.5015464328
 21
0.0
 31
0.0
  0
LINE
  5
DA
330
1F
100
AcDbEntity
  8
0
  6
Continuous
 62
     7
370
    25
100
AcDbLine
 10
-185.5015464328
 20
0.0
 30
0.0
 11
-185.5015464328
 21
0.2
 31
0.0
  0
LINE
  5
DB
330
1F
100
AcDbEntity
  8
0
  6
Continuous
 62
     7
370
    25
100
AcDbLine
 10
-185.6015464328
 20
0.0267949192
 30
0.0
 11
-185.5015464328
 21
0.2
 31
0.0
  0
LINE
  5
DC
330
1F
100
AcDbEntity
  8
0
  6
Continuous
 62
     7
370
    25
100
AcDbLine
 10
549.9
 20
-52.0577350269
 30
0.0
 11
520.6015464328
 21
-68.9732050808
 31
0.0
  0
LINE
  5
DD
330
1F
100
AcDbEntity
  8
0
  6
Continuous
 62
     7
370
    25
100
AcDbLine
 10
536.190003701
 20
-59.9732050808
 30
0.0
 11
536.090003701
 21
-59.8
 31
0.0
  0
LINE
  5
DE
330
1F
100
AcDbEntity
  8
0
  6
Continuous
 62
     7
370
    25
100
AcDbLine
 10
536.090003701
 20
-59.8
 30
0.0
 11
549.8
 21
-51.8845299462
 31
0.0
  0
LINE
  5
DF
330
1F
100
AcDbEntity
  8
0
  6
Continuous
 62
     7
370
    25
100
AcDbLine
 10
549.9
 20
-52.0577350269
 30
0.0
 11
549.8
 21
-51.8845299462
 31
0.0
  0
LINE
  5
E0
330
1F
100
AcDbEntity
  8
0
  6
Continuous
 62
     7
370
    25
100
AcDbLine
 10
550.0
 20
-51.8845299462
 30
0.0
 11
549.8
 21
-51.8845299462
 31
0.0
  0
LINE
  5
E1
330
1F
100
AcDbEntity
  8
0
  6
Continuous
 62
     7
370
    25
100
AcDbLine
 10
550.0
 20
-50.2
 30
0.0
 11
-550.0
 21
-50.2
 31
0.0
  0
LINE
  5
E2
330
1F
100
AcDbEntity
  8
0
  6
Continuous
 62
     7
370
    25
100
AcDbLine
 10
-549.8
 20
-50.0
 30
0.0
 11
549.8
 21
-50.0
 31
0.0
  0
LINE
  5
E3
330
1F
100
AcDbEntity
  8
0
  6
Continuous
 62
     7
370
    25
100
AcDbLine
 10
549.8
 20
-51.8845299462
 30
0.0
 11
549.8
 21
-50.0
 31
0.0
  0
LINE
  5
E4
330
1F
100
AcDbEntity
  8
0
  6
Continuous
 62
     7
370
    25
100
AcDbLine
 10
550.0
 20
-50.2
 30
0.0
 11
550.0
 21
-51.8845299462
 31
0.0
  0
LINE
  5
E5
330
1F
100
AcDbEntity
  8
0
  6
Continuous
 62
     7
370
    25
100
AcDbLine
 10
-536.090003701
 20
-59.8
 30
0.0
 11
536.090003701
 21
-59.8
 31
0.0
  0
LINE
  5
E6
330
1F
100
AcDbEntity
  8
0
  6
Continuous
 62
     7
370
    25
100
AcDbLine
 10
-550.0
 20
-51.7690598923
 30
0.0
 11
-536.090003701
 21
-59.8
 31
0.0
  0
LINE
  5
E7
330
1F
100
AcDbEntity
  8
0
  6
Continuous
 62
     7
370
    25
100
AcDbLine
 10
-550.0
 20
-50.2
 30
0.0
 11
-550.0
 21
-51.8845299462
 31
0.0
  0
LINE
  5
E8
330
1F
100
AcDbEntity
  8
0
  6
Continuous
 62
     7
370
    25
100
AcDbLine
 10
536.090003701
 20
-60.0
 30
0.0
 11
-536.090003701
 21
-60.0
 31
0.0
  0
LINE
  5
E9
330
1F
100
AcDbEntity
  8
0
  6
Continuous
 62
     7
370
    25
100
AcDbLine
 10
-536.090003701
 20
-60.0
 30
0.0
 11
-536.090003701
 21
-59.8
 31
0.0
  0
LINE
  5
EA
330
1F
100
AcDbEntity
  8
0
  6
Continuous
 62
     7
370
    25
100
AcDbLine
 10
536.090003701
 20
-60.0
 30
0.0
 11
536.090003701
 21
-59.8
 31
0.0
  0
LINE
  5
EB
330
1F
100
AcDbEntity
  8
0
  6
Continuous
 62
     7
370
    25
100
AcDbLine
 10
-536.190003701
 20
-59.9732050808
 30
0.0
 11
-536.090003701
 21
-59.8
 31
0.0
  0
LINE
  5
EC
330
1F
100
AcDbEntity
  8
0
  6
Continuous
 62
     7
370
    25
100
AcDbLine
 10
-520.6015464328
 20
-68.9732050808
 30
0.0
 11
-549.9
 21
-52.0577350269
 31
0.0
  0
LINE
  5
ED
330
1F
100
AcDbEntity
  8
0
  6
Continuous
 62
     7
370
    25
100
AcDbLine
 10
520.5015464328
 20
-68.8
 30
0.0
 11
520.6015464328
 21
-68.9732050808
 31
0.0
  0
LINE
  5
EE
330
1F
100
AcDbEntity
  8
0
  6
Continuous
 62
     7
370
    25
100
AcDbLine
 10
-520.5015464328
 20
-68.8
 30
0.0
 11
520.5015464328
 21
-68.8
 31
0.0
  0
LINE
  5
EF
330
1F
100
AcDbEntity
  8
0
  6
Continuous
 62
     7
370
    25
100
AcDbLine
 10
520.5015464328
 20
-69.0
 30
0.0
 11
520.5015464328
 21
-68.8
 31
0.0
  0
LINE
  5
F0
330
1F
100
AcDbEntity
  8
0
  6
Continuous
 62
     7
370
    25
100
AcDbLine
 10
520.5015464328
 20
-69.0
 30
0.0
 11
-520.5015464328
 21
-69.0
 31
0.0
  0
LINE
  5
F1
330
1F
100
AcDbEntity
  8
0
  6
Continuous
 62
     7
370
    25
100
AcDbLine
 10
-520.5015464328
 20
-69.0
 30
0.0
 11
-520.5015464328
 21
-68.8
 31
0.0
  0
LINE
  5
F2
330
1F
100
AcDbEntity
  8
0
  6
Continuous
 62
     7
370
    25
100
AcDbLine
 10
-520.6015464328
 20
-68.9732050808
 30
0.0
 11
-520.5015464328
 21
-68.8
 31
0.0
  0
LINE
  5
F3
330
1F
100
AcDbEntity
  8
0
  6
Continuous
 62
     8
370
    25
100
AcDbLine
 10
-200.7435935394
 20
9.0
 30
0.0
 11
-185.5015464328
 21
0.2
 31
0.0
  0
LINE
  5
F4
330
1F
100
AcDbEntity
  8
0
  6
Continuous
 62
     8
370
    25
100
AcDbLine
 10
185.5015464328
 20
0.2
 30
0.0
 11
200.7435935394
 21
9.0
 31
0.0
  0
LINE
  5
F5
330
1F
100
AcDbEntity
  8
0
  6
Continuous
 62
     8
370
    25
100
AcDbLine
 10
520.5015464328
 20
-68.8
 30
0.0
 11
535.7435935394
 21
-60.0
 31
0.0
  0
LINE
  5
F6
330
1F
100
AcDbEntity
  8
0
  6
Continuous
 62
     8
370
    25
100
AcDbLine
 10
-535.7435935394
 20
-60.0
 30
0.0
 11
-520.5015464328
 21
-68.8
 31
0.0
  0
ARC
  5
F7
330
1F
100
AcDbEntity
  8
0
  6
Continuous
 62
     7
370
    25
100
AcDbCircle
 10
214.8
 20
17.1154700538
 30
0.0
 40
0.1999999999999698
100
AcDbArc
 50
300.0
 51
0.0
  0
ARC
  5
F8
330
1F
100
AcDbEntity
  8
0
  6
Continuous
 62
     7
370
    25
100
AcDbCircle
 10
214.8
 20
18.8
 30
0.0
 40
0.2000000000000455
100
AcDbArc
 50
0.0
 51
90.0
  0
ARC
  5
F9
330
1F
100
AcDbEntity
  8
0
  6
Continuous
 62
     7
370
    25
100
AcDbCircle
 10
201.090003701
 20
9.2
 30
0.0
 40
0.1999999999996884
100
AcDbArc
 50
270.0
 51
300.0
  0
ARC
  5
FA
330
1F
100
AcDbEntity
  8
0
  6
Continuous
 62
     7
370
    25
100
AcDbCircle
 10
-214.8
 20
18.8
 30
0.0
 40
0.2000000000000242
100
AcDbArc
 50
90.0
 51
180.0
  0
ARC
  5
FB
330
1F
100
AcDbEntity
  8
0
  6
Continuous
 62
     7
370
    25
100
AcDbCircle
 10
-214.8
 20
17.1154700538
 30
0.0
 40
0.200000000000074
100
AcDbArc
 50
180.0
 51
240.0
  0
ARC
  5
FC
330
1F
100
AcDbEntity
  8
0
  6
Continuous
 62
     7
370
    25
100
AcDbCircle
 10
-201.090003701
 20
9.2
 30
0.0
 40
0.2000000000002515
100
AcDbArc
 50
240.0
 51
270.0
  0
ARC
  5
FD
330
1F
100
AcDbEntity
  8
0
  6
Continuous
 62
     7
370
    25
100
AcDbCircle
 10
-160.0
 20
9.5
 30
0.0
 40
2.49999999999996
100
AcDbArc
 50
191.5369590328
 51
348.4630409672
  0
ARC
  5
FE
330
1F
100
AcDbEntity
  8
0
  6
Continuous
 62
     7
370
    25
100
AcDbCircle
 10
160.0
 20
9.5
 30
0.0
 40
2.499999999999934
100
AcDbArc
 50
191.5369590328
 51
348.4630409672
  0
ARC
  5
FF
330
1F
100
AcDbEntity
  8
0
  6
Continuous
 62
     7
370
    25
100
AcDbCircle
 10
185.5015464328
 20
0.2
 30
0.0
 40
0.1999999999998512
100
AcDbArc
 50
270.0
 51
300.0
  0
ARC
  5
100
330
1F
100
AcDbEntity
  8
0
  6
Continuous
 62
     7
370
    25
100
AcDbCircle
 10
-185.5015464328
 20
0.2
 30
0.0
 40
0.2000000000002282
100
AcDbArc
 50
240.0
 51
270.0
  0
ARC
  5
101
330
1F
100
AcDbEntity
  8
0
  6
Continuous
 62
     7
370
    25
100
AcDbCircle
 10
549.8
 20
-51.8845299462
 30
0.0
 40
0.2000000000000455
100
AcDbArc
 50
300.0
 51
0.0
  0
ARC
  5
102
330
1F
100
AcDbEntity
  8
0
  6
Continuous
 62
     7
370
    25
100
AcDbCircle
 10
-549.8
 20
-50.2
 30
0.0
 40
0.1999999999999673
100
AcDbArc
 50
90.0
 51
180.0
  0
ARC
  5
103
330
1F
100
AcDbEntity
  8
0
  6
Continuous
 62
     7
370
    25
100
AcDbCircle
 10
549.8
 20
-50.2
 30
0.0
 40
0.2000000000000455
100
AcDbArc
 50
0.0
 51
90.0
  0
ARC
  5
104
330
1F
100
AcDbEntity
  8
0
  6
Continuous
 62
     7
370
    25
100
AcDbCircle
 10
536.090003701
 20
-59.8
 30
0.0
 40
0.2000000000001094
100
AcDbArc
 50
270.0
 51
300.0
  0
ARC
  5
105
330
1F
100
AcDbEntity
  8
0
  6
Continuous
 62
     7
370
    25
100
AcDbCircle
 10
-549.8
 20
-51.8845299462
 30
0.0
 40
0.1999999999998368
100
AcDbArc
 50
180.0
 51
240.0
  0
ARC
  5
106
330
1F
100
AcDbEntity
  8
0
  6
Continuous
 62
     7
370
    25
100
AcDbCircle
 10
-536.090003701
 20
-59.8
 30
0.0
 40
0.2000000000015234
100
AcDbArc
 50
240.0000000001
 51
269.9999999998
  0
ARC
  5
107
330
1F
100
AcDbEntity
  8
0
  6
Continuous
 62
     7
370
    25
100
AcDbCircle
 10
-160.0
 20
-59.5
 30
0.0
 40
2.499999999999933
100
AcDbArc
 50
191.5369590328
 51
348.4630409672
  0
ARC
  5
108
330
1F
100
AcDbEntity
  8
0
  6
Continuous
 62
     7
370
    25
100
AcDbCircle
 10
160.0
 20
-59.5
 30
0.0
 40
2.499999999999936
100
AcDbArc
 50
191.5369590328
 51
348.4630409672
  0
ARC
  5
109
330
1F
100
AcDbEntity
  8
0
  6
Continuous
 62
     7
370
    25
100
AcDbCircle
 10
480.0
 20
-59.4
 30
0.0
 40
2.49999999999992
100
AcDbArc
 50
193.8865403626
 51
346.1134596374
  0
ARC
  5
10A
330
1F
100
AcDbEntity
  8
0
  6
Continuous
 62
     7
370
    25
100
AcDbCircle
 10
-480.0
 20
-59.4
 30
0.0
 40
2.500000000000091
100
AcDbArc
 50
193.8865403626
 51
346.1134596374
  0
ARC
  5
10B
330
1F
100
AcDbEntity
  8
0
  6
Continuous
 62
     7
370
    25
100
AcDbCircle
 10
520.5015464328
 20
-68.8
 30
0.0
 40
0.199999999998937
100
AcDbArc
 50
269.9999999999
 51
300.0000000001
  0
ARC
  5
10C
330
1F
100
AcDbEntity
  8
0
  6
Continuous
 62
     7
370
    25
100
AcDbCircle
 10
-520.5015464328
 20
-68.8
 30
0.0
 40
0.1999999999994628
100
AcDbArc
 50
239.9999999999
 51
270.0
  0
CIRCLE
  5
118
330
1B
100
AcDbEntity
 67
     1
  8
0
  6
Continuous
 62
     7
370
    25
100
AcDbCircle
 10
160.0
 20
9.5
 30
0.0
 40
2.499999999999908
  0
CIRCLE
  5
119
330
1B
100
AcDbEntity
 67
     1
  8
0
  6
Continuous
 62
     7
370
    25
100
AcDbCircle
 10
-160.0
 20
9.5
 30
0.0
 40
2.499999999999911
  0
CIRCLE
  5
130
330
1B
100
AcDbEntity
 67
     1
  8
0
  6
Continuous
 62
     7
370
    25
100
AcDbCircle
 10
160.0
 20
-59.5
 30
0.0
 40
2.499999999999922
  0
CIRCLE
  5
131
330
1B
100
AcDbEntity
 67
     1
  8
0
  6
Continuous
 62
     7
370
    25
100
AcDbCircle
 10
-160.0
 20
-59.5
 30
0.0
 40
2.499999999999915
  0
CIRCLE
  5
132
330
1B
100
AcDbEntity
 67
     1
  8
0
  6
Continuous
 62
     7
370
    25
100
AcDbCircle
 10
-480.0
 20
-59.4
 30
0.0
 40
2.499999999999936
  0
CIRCLE
  5
133
330
1B
100
AcDbEntity
 67
     1
  8
0
  6
Continuous
 62
     7
370
    25
100
AcDbCircle
 10
480.0
 20
-59.4
 30
0.0
 40
2.500000000000057
  0
LINE
  5
151
330
1B
100
AcDbEntity
 67
     1
  8
0
  6
Continuous
 62
     7
370
    25
100
AcDbLine
 10
185.5015464328
 20
0.2
 30
0.0
 11
185.5015464328
 21
0.0
 31
0.0
  0
LINE
  5
152
330
1B
100
AcDbEntity
 67
     1
  8
0
  6
Continuous
 62
     7
370
    25
100
AcDbLine
 10
185.5015464328
 20
0.2
 30
0.0
 11
185.6015464328
 21
0.0267949192
 31
0.0
  0
LINE
  5
153
330
1B
100
AcDbEntity
 67
     1
  8
0
  6
Continuous
 62
     7
370
    25
100
AcDbLine
 10
185.5015464328
 20
0.2
 30
0.0
 11
214.8
 21
17.1154700538
 31
0.0
  0
LINE
  5
154
330
1B
100
AcDbEntity
 67
     1
  8
0
  6
Continuous
 62
     7
370
    25
100
AcDbLine
 10
214.8
 20
17.1154700538
 30
0.0
 11
214.9
 21
16.9422649731
 31
0.0
  0
LINE
  5
155
330
1B
100
AcDbEntity
 67
     1
  8
0
  6
Continuous
 62
     7
370
    25
100
AcDbLine
 10
214.9
 20
16.9422649731
 30
0.0
 11
185.6015464328
 21
0.0267949192
 31
0.0
  0
LINE
  5
156
330
1B
100
AcDbEntity
 67
     1
  8
0
  6
Continuous
 62
     7
370
    25
100
AcDbLine
 10
-185.5015464328
 20
0.2
 30
0.0
 11
185.5015464328
 21
0.2
 31
0.0
  0
LINE
  5
157
330
1B
100
AcDbEntity
 67
     1
  8
0
  6
Continuous
 62
     7
370
    25
100
AcDbLine
 10
-214.8
 20
17.1154700538
 30
0.0
 11
-185.5015464328
 21
0.2
 31
0.0
  0
LINE
  5
158
330
1B
100
AcDbEntity
 67
     1
  8
0
  6
Continuous
 62
     7
370
    25
100
AcDbLine
 10
-214.8
 20
19.0
 30
0.0
 11
-214.8
 21
17.1154700538
 31
0.0
  0
LINE
  5
159
330
1B
100
AcDbEntity
 67
     1
  8
0
  6
Continuous
 62
     7
370
    25
100
AcDbLine
 10
-214.8
 20
19.0
 30
0.0
 11
214.8
 21
19.0
 31
0.0
  0
LINE
  5
15A
330
1B
100
AcDbEntity
 67
     1
  8
0
  6
Continuous
 62
     7
370
    25
100
AcDbLine
 10
214.8
 20
17.1154700538
 30
0.0
 11
214.8
 21
19.0
 31
0.0
  0
LINE
  5
15B
330
1B
100
AcDbEntity
 67
     1
  8
0
  6
Continuous
 62
     7
370
    25
100
AcDbLine
 10
185.5015464328
 20
0.0
 30
0.0
 11
-185.5015464328
 21
0.0
 31
0.0
  0
LINE
  5
15C
330
1B
100
AcDbEntity
 67
     1
  8
0
  6
Continuous
 62
     7
370
    25
100
AcDbLine
 10
-185.5015464328
 20
0.2
 30
0.0
 11
-185.5015464328
 21
0.0
 31
0.0
  0
LINE
  5
15D
330
1B
100
AcDbEntity
 67
     1
  8
0
  6
Continuous
 62
     7
370
    25
100
AcDbLine
 10
215.0
 20
17.1154700538
 30
0.0
 11
214.8
 21
17.1154700538
 31
0.0
  0
LINE
  5
15E
330
1B
100
AcDbEntity
 67
     1
  8
0
  6
Continuous
 62
     7
370
    25
100
AcDbLine
 10
215.0
 20
18.8
 30
0.0
 11
215.0
 21
17.1154700538
 31
0.0
  0
LINE
  5
15F
330
1B
100
AcDbEntity
 67
     1
  8
0
  6
Continuous
 62
     7
370
    25
100
AcDbLine
 10
-185.6015464328
 20
0.0267949192
 30
0.0
 11
-185.5015464328
 21
0.2
 31
0.0
  0
LINE
  5
160
330
1B
100
AcDbEntity
 67
     1
  8
0
  6
Continuous
 62
     7
370
    25
100
AcDbLine
 10
-185.6015464328
 20
0.0267949192
 30
0.0
 11
-214.9
 21
16.9422649731
 31
0.0
  0
LINE
  5
161
330
1B
100
AcDbEntity
 67
     1
  8
0
  6
Continuous
 62
     7
370
    25
100
AcDbLine
 10
-214.9
 20
16.9422649731
 30
0.0
 11
-214.8
 21
17.1154700538
 31
0.0
  0
LINE
  5
162
330
1B
100
AcDbEntity
 67
     1
  8
0
  6
Continuous
 62
     7
370
    25
100
AcDbLine
 10
-214.8
 20
17.1154700538
 30
0.0
 11
-215.0
 21
17.1154700538
 31
0.0
  0
LINE
  5
163
330
1B
100
AcDbEntity
 67
     1
  8
0
  6
Continuous
 62
     7
370
    25
100
AcDbLine
 10
-215.0
 20
17.1154700538
 30
0.0
 11
-215.0
 21
18.8
 31
0.0
  0
LINE
  5
164
330
1B
100
AcDbEntity
 67
     1
  8
0
  6
Continuous
 62
     7
370
    25
100
AcDbLine
 10
162.4494897428
 20
9.0
 30
0.0
 11
157.5505102572
 21
9.0
 31
0.0
  0
LINE
  5
165
330
1B
100
AcDbEntity
 67
     1
  8
0
  6
Continuous
 62
     7
370
    25
100
AcDbLine
 10
-157.5505102572
 20
9.0
 30
0.0
 11
-162.4494897428
 21
9.0
 31
0.0
  0
LINE
  5
166
330
1B
100
AcDbEntity
 67
     1
  8
0
  6
Continuous
 62
     7
370
    25
100
AcDbLine
 10
-520.5015464328
 20
-68.8
 30
0.0
 11
520.5015464328
 21
-68.8
 31
0.0
  0
LINE
  5
167
330
1B
100
AcDbEntity
 67
     1
  8
0
  6
Continuous
 62
     7
370
    25
100
AcDbLine
 10
-549.8
 20
-51.8845299462
 30
0.0
 11
-520.5015464328
 21
-68.8
 31
0.0
  0
LINE
  5
168
330
1B
100
AcDbEntity
 67
     1
  8
0
  6
Continuous
 62
     7
370
    25
100
AcDbLine
 10
-549.8
 20
-50.0
 30
0.0
 11
-549.8
 21
-51.8845299462
 31
0.0
  0
LINE
  5
169
330
1B
100
AcDbEntity
 67
     1
  8
0
  6
Continuous
 62
     7
370
    25
100
AcDbLine
 10
-549.8
 20
-50.0
 30
0.0
 11
549.8
 21
-50.0
 31
0.0
  0
LINE
  5
16A
330
1B
100
AcDbEntity
 67
     1
  8
0
  6
Continuous
 62
     7
370
    25
100
AcDbLine
 10
549.8
 20
-51.8845299462
 30
0.0
 11
549.8
 21
-50.0
 31
0.0
  0
LINE
  5
16B
330
1B
100
AcDbEntity
 67
     1
  8
0
  6
Continuous
 62
     7
370
    25
100
AcDbLine
 10
520.5015464328
 20
-68.8
 30
0.0
 11
549.8
 21
-51.8845299462
 31
0.0
  0
LINE
  5
16C
330
1B
100
AcDbEntity
 67
     1
  8
0
  6
Continuous
 62
     7
370
    25
100
AcDbLine
 10
520.5015464328
 20
-68.8
 30
0.0
 11
520.5015464328
 21
-69.0
 31
0.0
  0
LINE
  5
16D
330
1B
100
AcDbEntity
 67
     1
  8
0
  6
Continuous
 62
     7
370
    25
100
AcDbLine
 10
520.5015464328
 20
-69.0
 30
0.0
 11
-520.5015464328
 21
-69.0
 31
0.0
  0
LINE
  5
16E
330
1B
100
AcDbEntity
 67
     1
  8
0
  6
Continuous
 62
     7
370
    25
100
AcDbLine
 10
-520.5015464328
 20
-68.8
 30
0.0
 11
-520.5015464328
 21
-69.0
 31
0.0
  0
LINE
  5
16F
330
1B
100
AcDbEntity
 67
     1
  8
0
  6
Continuous
 62
     7
370
    25
100
AcDbLine
 10
549.8
 20
-51.8845299462
 30
0.0
 11
549.9
 21
-52.0577350269
 31
0.0
  0
LINE
  5
170
330
1B
100
AcDbEntity
 67
     1
  8
0
  6
Continuous
 62
     7
370
    25
100
AcDbLine
 10
549.9
 20
-52.0577350269
 30
0.0
 11
520.6015464328
 21
-68.9732050808
 31
0.0
  0
LINE
  5
171
330
1B
100
AcDbEntity
 67
     1
  8
0
  6
Continuous
 62
     7
370
    25
100
AcDbLine
 10
520.5015464328
 20
-68.8
 30
0.0
 11
520.6015464328
 21
-68.9732050808
 31
0.0
  0
LINE
  5
172
330
1B
100
AcDbEntity
 67
     1
  8
0
  6
Continuous
 62
     7
370
    25
100
AcDbLine
 10
550.0
 20
-51.8845299462
 30
0.0
 11
549.8
 21
-51.8845299462
 31
0.0
  0
LINE
  5
173
330
1B
100
AcDbEntity
 67
     1
  8
0
  6
Continuous
 62
     7
370
    25
100
AcDbLine
 10
550.0
 20
-50.2
 30
0.0
 11
550.0
 21
-51.8845299462
 31
0.0
  0
LINE
  5
174
330
1B
100
AcDbEntity
 67
     1
  8
0
  6
Continuous
 62
     7
370
    25
100
AcDbLine
 10
-520.6015464328
 20
-68.9732050808
 30
0.0
 11
-549.9
 21
-52.0577350269
 31
0.0
  0
LINE
  5
175
330
1B
100
AcDbEntity
 67
     1
  8
0
  6
Continuous
 62
     7
370
    25
100
AcDbLine
 10
-549.9
 20
-52.0577350269
 30
0.0
 11
-549.8
 21
-51.8845299462
 31
0.0
  0
LINE
  5
176
330
1B
100
AcDbEntity
 67
     1
  8
0
  6
Continuous
 62
     7
370
    25
100
AcDbLine
 10
-520.6015464328
 20
-68.9732050808
 30
0.0
 11
-520.5015464328
 21
-68.8
 31
0.0
  0
LINE
  5
177
330
1B
100
AcDbEntity
 67
     1
  8
0
  6
Continuous
 62
     7
370
    25
100
AcDbLine
 10
-549.8
 20
-51.8845299462
 30
0.0
 11
-550.0
 21
-51.8845299462
 31
0.0
  0
LINE
  5
178
330
1B
100
AcDbEntity
 67
     1
  8
0
  6
Continuous
 62
     7
370
    25
100
AcDbLine
 10
-550.0
 20
-51.8845299462
 30
0.0
 11
-550.0
 21
-50.2
 31
0.0
  0
LINE
  5
179
330
1B
100
AcDbEntity
 67
     1
  8
0
  6
Continuous
 62
     7
370
    25
100
AcDbLine
 10
482.4269322199
 20
-60.0
 30
0.0
 11
477.5730677801
 21
-60.0
 31
0.0
  0
LINE
  5
17A
330
1B
100
AcDbEntity
 67
     1
  8
0
  6
Continuous
 62
     7
370
    25
100
AcDbLine
 10
162.4494897428
 20
-60.0
 30
0.0
 11
157.5505102572
 21
-60.0
 31
0.0
  0
LINE
  5
17B
330
1B
100
AcDbEntity
 67
     1
  8
0
  6
Continuous
 62
     7
370
    25
100
AcDbLine
 10
-157.5505102572
 20
-60.0
 30
0.0
 11
-162.4494897428
 21
-60.0
 31
0.0
  0
LINE
  5
17C
330
1B
100
AcDbEntity
 67
     1
  8
0
  6
Continuous
 62
     7
370
    25
100
AcDbLine
 10
-477.5730677801
 20
-60.0
 30
0.0
 11
-482.4269322199
 21
-60.0
 31
0.0
  0
LINE
  5
17D
330
1B
100
AcDbEntity
 67
     1
  8
0
  6
Continuous
 62
     8
370
    25
100
AcDbLine
 10
-162.4819347292
 20
9.2
 30
0.0
 11
-157.5180652708
 21
9.2
 31
0.0
  0
LINE
  5
17E
330
1B
100
AcDbEntity
 67
     1
  8
0
  6
Continuous
 62
     8
370
    25
100
AcDbLine
 10
157.5180652708
 20
9.2
 30
0.0
 11
162.4819347292
 21
9.2
 31
0.0
  0
LINE
  5
17F
330
1B
100
AcDbEntity
 67
     1
  8
0
  6
Continuous
 62
     8
370
    25
100
AcDbLine
 10
-482.4677925359
 20
-59.8
 30
0.0
 11
-477.5322074641
 21
-59.8
 31
0.0
  0
LINE
  5
180
330
1B
100
AcDbEntity
 67
     1
  8
0
  6
Continuous
 62
     8
370
    25
100
AcDbLine
 10
-162.4819347292
 20
-59.8
 30
0.0
 11
-157.5180652708
 21
-59.8
 31
0.0
  0
LINE
  5
181
330
1B
100
AcDbEntity
 67
     1
  8
0
  6
Continuous
 62
     8
370
    25
100
AcDbLine
 10
157.5180652708
 20
-59.8
 30
0.0
 11
162.4819347292
 21
-59.8
 31
0.0
  0
LINE
  5
182
330
1B
100
AcDbEntity
 67
     1
  8
0
  6
Continuous
 62
     8
370
    25
100
AcDbLine
 10
477.5322074641
 20
-59.8
 30
0.0
 11
482.4677925359
 21
-59.8
 31
0.0
  0
ARC
  5
183
330
1B
100
AcDbEntity
 67
     1
  8
0
  6
Continuous
 62
     7
370
    25
100
AcDbCircle
 10
185.5015464328
 20
0.2
 30
0.0
 40
0.2000000000001663
100
AcDbArc
 50
270.0
 51
300.0
  0
ARC
  5
184
330
1B
100
AcDbEntity
 67
     1
  8
0
  6
Continuous
 62
     7
370
    25
100
AcDbCircle
 10
214.8
 20
17.1154700538
 30
0.0
 40
0.1999999999999698
100
AcDbArc
 50
300.0
 51
0.0
  0
ARC
  5
185
330
1B
100
AcDbEntity
 67
     1
  8
0
  6
Continuous
 62
     7
370
    25
100
AcDbCircle
 10
214.8
 20
18.8
 30
0.0
 40
0.2000000000000242
100
AcDbArc
 50
0.0
 51
90.0
  0
ARC
  5
186
330
1B
100
AcDbEntity
 67
     1
  8
0
  6
Continuous
 62
     7
370
    25
100
AcDbCircle
 10
-185.5015464328
 20
0.2
 30
0.0
 40
0.1999999999998524
100
AcDbArc
 50
240.0
 51
270.0
  0
ARC
  5
187
330
1B
100
AcDbEntity
 67
     1
  8
0
  6
Continuous
 62
     7
370
    25
100
AcDbCircle
 10
-214.8
 20
17.1154700538
 30
0.0
 40
0.1999999999999698
100
AcDbArc
 50
180.0
 51
240.0
  0
ARC
  5
188
330
1B
100
AcDbEntity
 67
     1
  8
0
  6
Continuous
 62
     7
370
    25
100
AcDbCircle
 10
-214.8
 20
18.8
 30
0.0
 40
0.2000000000000242
100
AcDbArc
 50
90.0
 51
180.0
  0
ARC
  5
189
330
1B
100
AcDbEntity
 67
     1
  8
0
  6
Continuous
 62
     7
370
    25
100
AcDbCircle
 10
520.5015464328
 20
-68.8
 30
0.0
 40
0.1999999999994628
100
AcDbArc
 50
270.0
 51
300.0000000001
  0
ARC
  5
18A
330
1B
100
AcDbEntity
 67
     1
  8
0
  6
Continuous
 62
     7
370
    25
100
AcDbCircle
 10
549.8
 20
-51.8845299462
 30
0.0
 40
0.1999999999999318
100
AcDbArc
 50
300.0
 51
0.0
  0
ARC
  5
18B
330
1B
100
AcDbEntity
 67
     1
  8
0
  6
Continuous
 62
     7
370
    25
100
AcDbCircle
 10
549.8
 20
-50.2
 30
0.0
 40
0.1999999999999602
100
AcDbArc
 50
360.0
 51
90.0
  0
ARC
  5
18C
330
1B
100
AcDbEntity
 67
     1
  8
0
  6
Continuous
 62
     7
370
    25
100
AcDbCircle
 10
-520.5015464328
 20
-68.8
 30
0.0
 40
0.199999999998937
100
AcDbArc
 50
239.9999999999
 51
270.0000000001
  0
ARC
  5
18D
330
1B
100
AcDbEntity
 67
     1
  8
0
  6
Continuous
 62
     7
370
    25
100
AcDbCircle
 10
-549.8
 20
-50.2
 30
0.0
 40
0.1999999999999602
100
AcDbArc
 50
90.0
 51
180.0
  0
ARC
  5
18E
330
1B
100
AcDbEntity
 67
     1
  8
0
  6
Continuous
 62
     7
370
    25
100
AcDbCircle
 10
-549.8
 20
-51.8845299462
 30
0.0
 40
0.1999999999999859
100
AcDbArc
 50
180.0
 51
240.0
  0
VIEWPORT
  5
390
330
1B
100
AcDbEntity
 67
     1
  8
0
100
AcDbViewport
 10
0.0
 20
0.0
 30
0.0
 40
205.6
 41
156.0
 68
     1
 69
     1
 12
0.0
 22
-25.0
 13
0.0
 23
0.0
 14
10.0
 24
10.0
 15
10.0
 25
10.0
 16
0.0
 26
0.0
 36
1.0
 17
0.0
 27
0.0
 37
0.0
 42
50.0
 43
0.0
 44
0.0
 45
851.3229571984
 50
0.0
 51
0.0
 72
   100
 90
   557152
  1

281
     0
 71
     1
 74
     0
110
0.0
120
0.0
130
0.0
111
1.0
121
0.0
131
0.0
112
0.0
122
1.0
132
0.0
 79
     0
146
0.0
  0
ENDSEC
  0
SECTION
  2
OBJECTS
  0
DICTIONARY
  5
C
330
0
100
AcDbDictionary
281
     1
  3
ACAD_GROUP
350
D
  3
ACAD_LAYOUT
350
1A
  3
ACAD_MLINESTYLE
350
17
  3
ACAD_PLOTSETTINGS
350
19
  3
ACAD_PLOTSTYLENAME
350
E
  3
ACAD_SCALELIST
350
47
  0
DICTIONARY
  5
D
102
{ACAD_REACTORS
330
C
102
}
330
C
100
AcDbDictionary
281
     1
  0
DICTIONARY
  5
1A
102
{ACAD_REACTORS
330
C
102
}
330
C
100
AcDbDictionary
281
     1
  3
_Back
350
1E
  3
_Isometric
350
299
  3
_Left
350
26
  3
_Top
350
264
  3
Model
350
22
  0
DICTIONARY
  5
17
102
{ACAD_REACTORS
330
C
102
}
330
C
100
AcDbDictionary
281
     1
  3
Standard
350
18
  0
DICTIONARY
  5
19
102
{ACAD_REACTORS
330
C
102
}
330
C
100
AcDbDictionary
281
     1
  0
ACDBDICTIONARYWDFLT
  5
E
102
{ACAD_REACTORS
330
C
102
}
330
C
100
AcDbDictionary
281
     1
  3
Normal
350
F
100
AcDbDictionaryWithDefault
340
F
  0
DICTIONARY
  5
47
102
{ACAD_REACTORS
330
C
102
}
330
C
100
AcDbDictionary
281
     1
  3
A0
350
48
  3
A1
350
49
  3
A2
350
4A
  3
A3
350
4B
  3
A4
350
4C
  3
A5
350
4D
  3
A6
350
4E
  3
A7
350
4F
  3
A8
350
50
  3
A9
350
51
  3
B0
350
52
  3
B1
350
53
  3
B2
350
54
  3
B3
350
55
  3
B4
350
56
  3
B5
350
57
  3
B6
350
58
  3
B7
350
59
  3
B8
350
5A
  3
B9
350
5B
  3
C0
350
5C
  3
C1
350
5D
  3
C2
350
5E
  3
C3
350
5F
  3
C4
350
60
  3
C5
350
61
  3
C6
350
62
  3
C7
350
63
  3
C8
350
64
  3
C9
350
65
  3
D0
350
66
  3
D1
350
67
  3
D2
350
68
  0
LAYOUT
  5
1E
102
{ACAD_REACTORS
330
1A
102
}
330
1A
100
AcDbPlotSettings
  1

  2
none_device
  4
ISO_A4_(210.00_x_297.00_MM)
  6

 40
7.5
 41
20.0
 42
7.5
 43
20.0
 44
210.0
 45
297.0
 46
0.0
 47
0.0
 48
0.0
 49
0.0
140
0.0
141
0.0
142
1.0
143
4.280155642
 70
   688
 72
     1
 73
     1
 74
     1
  7

 75
     0
147
0.2336363636
148
550.0
149
69.0
100
AcDbLayout
  1
_Back
 70
     1
 71
     1
 10
-635.6031128405
 20
-101.1011673152
 11
635.6031128405
 21
797.7315175097
 12
0.0
 22
0.0
 32
0.0
 14
-550.0
 24
-69.0
 34
0.0
 15
550.0
 25
19.0
 35
0.0
146
0.0
 13
0.0
 23
0.0
 33
0.0
 16
1.0
 26
0.0
 36
0.0
 17
0.0
 27
1.0
 37
0.0
 76
     0
330
1B
331
390
  0
LAYOUT
  5
299
102
{ACAD_REACTORS
330
1A
102
}
330
1A
100
AcDbPlotSettings
  1

  2
none_device
  4
ISO_A4_(210.00_x_297.00_MM)
  6

 40
7.5
 41
20.0
 42
7.5
 43
20.0
 44
210.0
 45
297.0
 46
0.0
 47
0.0
 48
0.0
 49
0.0
140
0.0
141
0.0
142
1.0
143
4.280155642
 70
   688
 72
     1
 73
     1
 74
     1
  7

 75
     0
147
0.2336363636
148
550.0
149
69.0
100
AcDbLayout
  1
_Isometric
 70
     1
 71
     4
 10
0.0
 20
0.0
 11
0.0
 21
0.0
 12
0.0
 22
0.0
 32
0.0
 14
0.0
 24
0.0
 34
0.0
 15
0.0
 25
0.0
 35
0.0
146
0.0
 13
0.0
 23
0.0
 33
0.0
 16
1.0
 26
0.0
 36
0.0
 17
0.0
 27
1.0
 37
0.0
 76
     0
330
298
331
396
  0
LAYOUT
  5
26
102
{ACAD_REACTORS
330
1A
102
}
330
1A
100
AcDbPlotSettings
  1

  2
none_device
  4
ISO_A4_(210.00_x_297.00_MM)
  6

 40
7.5
 41
20.0
 42
7.5
 43
20.0
 44
210.0
 45
297.0
 46
0.0
 47
0.0
 48
0.0
 49
0.0
140
0.0
141
0.0
142
1.0
143
4.280155642
 70
   688
 72
     1
 73
     1
 74
     1
  7

 75
     0
147
0.2336363636
148
550.0
149
69.0
100
AcDbLayout
  1
_Left
 70
     1
 71
     2
 10
0.0
 20
0.0
 11
0.0
 21
0.0
 12
0.0
 22
0.0
 32
0.0
 14
0.0
 24
0.0
 34
0.0
 15
0.0
 25
0.0
 35
0.0
146
0.0
 13
0.0
 23
0.0
 33
0.0
 16
1.0
 26
0.0
 36
0.0
 17
0.0
 27
1.0
 37
0.0
 76
     0
330
23
331
392
  0
LAYOUT
  5
264
102
{ACAD_REACTORS
330
1A
102
}
330
1A
100
AcDbPlotSettings
  1

  2
none_device
  4
ISO_A4_(210.00_x_297.00_MM)
  6

 40
7.5
 41
20.0
 42
7.5
 43
20.0
 44
210.0
 45
297.0
 46
0.0
 47
0.0
 48
0.0
 49
0.0
140
0.0
141
0.0
142
1.0
143
4.280155642
 70
   688
 72
     1
 73
     1
 74
     1
  7

 75
     0
147
0.2336363636
148
550.0
149
69.0
100
AcDbLayout
  1
_Top
 70
     1
 71
     3
 10
0.0
 20
0.0
 11
0.0
 21
0.0
 12
0.0
 22
0.0
 32
0.0
 14
0.0
 24
0.0
 34
0.0
 15
0.0
 25
0.0
 35
0.0
146
0.0
 13
0.0
 23
0.0
 33
0.0
 16
1.0
 26
0.0
 36
0.0
 17
0.0
 27
1.0
 37
0.0
 76
     0
330
263
331
394
  0
LAYOUT
  5
22
102
{ACAD_REACTORS
330
1A
102
}
330
1A
100
AcDbPlotSettings
  1

  2
none_device
  4
ANSI_A_(11.00_x_8.50_Inches)
  6

 40
6.35
 41
19.05
 42
6.35000508
 43
19.05000254
 44
279.4
 45
215.9
 46
133.34999746
 47
95.18649873
 48
0.0
 49
0.0
140
0.0
141
0.0
142
0.0099
143
1.0
 70
  1696
 72
     0
 73
     0
 74
     0
  7

 75
     0
147
0.0179189148
148
-1300.4909072572
149
0.0
100
AcDbLayout
  1
Model
 70
     1
 71
     0
 10
0.0
 20
0.0
 11
420.0
 21
297.0
 12
0.0
 22
0.0
 32
0.0
 14
-550.0
 24
-69.0
 34
0.0
 15
550.0
 25
19.0
 35
0.0
146
0.0
 13
0.0
 23
0.0
 33
0.0
 16
1.0
 26
0.0
 36
0.0
 17
0.0
 27
1.0
 37
0.0
 76
     0
330
1F
331
29
  0
MLINESTYLE
  5
18
102
{ACAD_REACTORS
330
17
102
}
330
17
100
AcDbMlineStyle
  2
Standard
 70
     0
  3

 62
   256
 51
90.0
 52
90.0
 71
     2
 49
0.5
 62
   256
  6
BYLAYER
 49
-0.5
 62
   256
  6
BYLAYER
  0
ACDBPLACEHOLDER
  5
F
102
{ACAD_REACTORS
330
E
102
}
330
E
  0
SCALE
  5
48
102
{ACAD_REACTORS
330
47
102
}
330
47
100
AcDbScale
 70
     0
300
1:1
140
1.0
141
1.0
290
     1
  0
SCALE
  5
49
102
{ACAD_REACTORS
330
47
102
}
330
47
100
AcDbScale
 70
     0
300
1:2
140
1.0
141
2.0
290
     0
  0
SCALE
  5
4A
102
{ACAD_REACTORS
330
47
102
}
330
47
100
AcDbScale
 70
     0
300
1:4
140
1.0
141
4.0
290
     0
  0
SCALE
  5
4B
102
{ACAD_REACTORS
330
47
102
}
330
47
100
AcDbScale
 70
     0
300
1:5
140
1.0
141
5.0
290
     0
  0
SCALE
  5
4C
102
{ACAD_REACTORS
330
47
102
}
330
47
100
AcDbScale
 70
     0
300
1:8
140
1.0
141
8.0
290
     0
  0
SCALE
  5
4D
102
{ACAD_REACTORS
330
47
102
}
330
47
100
AcDbScale
 70
     0
300
1:10
140
1.0
141
10.0
290
     0
  0
SCALE
  5
4E
102
{ACAD_REACTORS
330
47
102
}
330
47
100
AcDbScale
 70
     0
300
1:16
140
1.0
141
16.0
290
     0
  0
SCALE
  5
4F
102
{ACAD_REACTORS
330
47
102
}
330
47
100
AcDbScale
 70
     0
300
1:20
140
1.0
141
20.0
290
     0
  0
SCALE
  5
50
102
{ACAD_REACTORS
330
47
102
}
330
47
100
AcDbScale
 70
     0
300
1:30
140
1.0
141
30.0
290
     0
  0
SCALE
  5
51
102
{ACAD_REACTORS
330
47
102
}
330
47
100
AcDbScale
 70
     0
300
1:40
140
1.0
141
40.0
290
     0
  0
SCALE
  5
52
102
{ACAD_REACTORS
330
47
102
}
330
47
100
AcDbScale
 70
     0
300
1:50
140
1.0
141
50.0
290
     0
  0
SCALE
  5
53
102
{ACAD_REACTORS
330
47
102
}
330
47
100
AcDbScale
 70
     0
300
1:100
140
1.0
141
100.0
290
     0
  0
SCALE
  5
54
102
{ACAD_REACTORS
330
47
102
}
330
47
100
AcDbScale
 70
     0
300
2:1
140
2.0
141
1.0
290
     0
  0
SCALE
  5
55
102
{ACAD_REACTORS
330
47
102
}
330
47
100
AcDbScale
 70
     0
300
4:1
140
4.0
141
1.0
290
     0
  0
SCALE
  5
56
102
{ACAD_REACTORS
330
47
102
}
330
47
100
AcDbScale
 70
     0
300
8:1
140
8.0
141
1.0
290
     0
  0
SCALE
  5
57
102
{ACAD_REACTORS
330
47
102
}
330
47
100
AcDbScale
 70
     0
300
10:1
140
10.0
141
1.0
290
     0
  0
SCALE
  5
58
102
{ACAD_REACTORS
330
47
102
}
330
47
100
AcDbScale
 70
     0
300
100:1
140
100.0
141
1.0
290
     0
  0
SCALE
  5
59
102
{ACAD_REACTORS
330
47
102
}
330
47
100
AcDbScale
 70
     0
300
1/128" = 1'-0"
140
0.0078125
141
12.0
290
     0
  0
SCALE
  5
5A
102
{ACAD_REACTORS
330
47
102
}
330
47
100
AcDbScale
 70
     0
300
1/64" = 1'-0"
140
0.015625
141
12.0
290
     0
  0
SCALE
  5
5B
102
{ACAD_REACTORS
330
47
102
}
330
47
100
AcDbScale
 70
     0
300
1/32" = 1'-0"
140
0.03125
141
12.0
290
     0
  0
SCALE
  5
5C
102
{ACAD_REACTORS
330
47
102
}
330
47
100
AcDbScale
 70
     0
300
1/16" = 1'-0"
140
0.0625
141
12.0
290
     0
  0
SCALE
  5
5D
102
{ACAD_REACTORS
330
47
102
}
330
47
100
AcDbScale
 70
     0
300
3/32" = 1'-0"
140
0.09375
141
12.0
290
     0
  0
SCALE
  5
5E
102
{ACAD_REACTORS
330
47
102
}
330
47
100
AcDbScale
 70
     0
300
1/8" = 1'-0"
140
0.125
141
12.0
290
     0
  0
SCALE
  5
5F
102
{ACAD_REACTORS
330
47
102
}
330
47
100
AcDbScale
 70
     0
300
3/16" = 1'-0"
140
0.1875
141
12.0
290
     0
  0
SCALE
  5
60
102
{ACAD_REACTORS
330
47
102
}
330
47
100
AcDbScale
 70
     0
300
1/4" = 1'-0"
140
0.25
141
12.0
290
     0
  0
SCALE
  5
61
102
{ACAD_REACTORS
330
47
102
}
330
47
100
AcDbScale
 70
     0
300
3/8" = 1'-0"
140
0.375
141
12.0
290
     0
  0
SCALE
  5
62
102
{ACAD_REACTORS
330
47
102
}
330
47
100
AcDbScale
 70
     0
300
1/2" = 1'-0"
140
0.5
141
12.0
290
     0
  0
SCALE
  5
63
102
{ACAD_REACTORS
330
47
102
}
330
47
100
AcDbScale
 70
     0
300
3/4" = 1'-0"
140
0.75
141
12.0
290
     0
  0
SCALE
  5
64
102
{ACAD_REACTORS
330
47
102
}
330
47
100
AcDbScale
 70
     0
300
1" = 1'-0"
140
1.0
141
12.0
290
     0
  0
SCALE
  5
65
102
{ACAD_REACTORS
330
47
102
}
330
47
100
AcDbScale
 70
     0
300
1-1/2" = 1'-0"
140
1.5
141
12.0
290
     0
  0
SCALE
  5
66
102
{ACAD_REACTORS
330
47
102
}
330
47
100
AcDbScale
 70
     0
300
3" = 1'-0"
140
3.0
141
12.0
290
     0
  0
SCALE
  5
67
102
{ACAD_REACTORS
330
47
102
}
330
47
100
AcDbScale
 70
     0
300
6" = 1'-0"
140
6.0
141
12.0
290
     0
  0
SCALE
  5
68
102
{ACAD_REACTORS
330
47
102
}
330
47
100
AcDbScale
 70
     0
300
1'-0" = 1'-0"
140
12.0
141
12.0
290
     0
  0
ENDSEC
  0
EOF
